  0
SECTION
  2
HEADER
  9
$ACADVER
  1
AC1009
  9
$EXTMIN
 10
0.0
 20
0.0
 30
0.0
  9
$EXTMAX
 10
1000.0
 20
1000.0
 30
0.0
  9
$FILLMODE
 70
 0
  9
$SPLFRAME
 70
 1
  0
ENDSEC
  0
SECTION
  2
TABLES
  0
TABLE
  2
LAYER
 70
1
  0
LAYER
  2
0
 70
     0
 62
     7
  6
CONTINUOUS
  0
ENDTAB
  0
ENDSEC
  0
SECTION
  2
ENTITIES
  0
POLYLINE
  8
0
 62
     0
 66
     1
 10
0
 20
0
 30
0.0
 40
0.162
 41
0.162
  0
VERTEX
  8
0
 10
0.0291883
 20
4.73053
 30
0.0
 40
0.00225
 41
0.00225
  0
VERTEX
  8
0
 10
7.10254
 20
4.7475
 30
0.0
 40
0.00225
 41
0.00225
  0
SEQEND
 8
0
  0
POLYLINE
  8
0
 62
     0
 66
     1
 10
0
 20
0
 30
0.0
 40
0.162
 41
0.162
  0
VERTEX
  8
0
 10
6.99024
 20
5.83544
 30
0.0
 40
0.00225
 41
0.00225
  0
VERTEX
  8
0
 10
6.98671
 20
0.846192
 30
0.0
 40
0.00225
 41
0.00225
  0
SEQEND
 8
0
  0
POLYLINE
  8
0
 62
     0
 66
     1
 10
0
 20
0
 30
0.0
 40
0.162
 41
0.162
  0
VERTEX
  8
0
 10
4.02636
 20
2.13428
 30
0.0
 40
0.00225
 41
0.00225
  0
VERTEX
  8
0
 10
4.02636
 20
0.693847
 30
0.0
 40
0.00225
 41
0.00225
  0
SEQEND
 8
0
  0
POLYLINE
  8
0
 62
     0
 66
     1
 10
0
 20
0
 30
0.0
 40
0.162
 41
0.162
  0
VERTEX
  8
0
 10
3.19325
 20
2.13189
 30
0.0
 40
0.00225
 41
0.00225
  0
VERTEX
  8
0
 10
3.19325
 20
0.594456
 30
0.0
 40
0.00225
 41
0.00225
  0
SEQEND
 8
0
  0
POLYLINE
  8
0
 62
     0
 66
     1
 10
0
 20
0
 30
0.0
 40
0.162
 41
0.162
  0
VERTEX
  8
0
 10
4.60243
 20
3.19325
 30
0.0
 40
0.00225
 41
0.00225
  0
VERTEX
  8
0
 10
4.60243
 20
2.02376
 30
0.0
 40
0.00225
 41
0.00225
  0
SEQEND
 8
0
  0
POLYLINE
  8
0
 62
     0
 66
     1
 10
0
 20
0
 30
0.0
 40
0.162
 41
0.162
  0
VERTEX
  8
0
 10
3.88146
 20
6.05479
 30
0.0
 40
0.00225
 41
0.00225
  0
VERTEX
  8
0
 10
3.87793
 20
0.0277778
 30
0.0
 40
0.00225
 41
0.00225
  0
SEQEND
 8
0
  0
POLYLINE
  8
0
 62
     0
 66
     1
 10
0
 20
0
 30
0.0
 70
     1
 40
0.750075
 41
0.750075
  0
VERTEX
  8
0
 10
0.391928
 20
5.5179
 30
0.0
 40
0.0104177
 41
0.0104177
  0
VERTEX
  8
0
 10
0.509765
 20
5.53836
 30
0.0
 40
0.0104177
 41
0.0104177
  0
VERTEX
  8
0
 10
0.865614
 20
5.5874
 30
0.0
 40
0.0104177
 41
0.0104177
  0
VERTEX
  8
0
 10
1.33713
 20
5.63211
 30
0.0
 40
0.0104177
 41
0.0104177
  0
VERTEX
  8
0
 10
1.80539
 20
5.65381
 30
0.0
 40
0.0104177
 41
0.0104177
  0
VERTEX
  8
0
 10
2.26926
 20
5.65408
 30
0.0
 40
0.0104177
 41
0.0104177
  0
VERTEX
  8
0
 10
2.72775
 20
5.63456
 30
0.0
 40
0.0104177
 41
0.0104177
  0
VERTEX
  8
0
 10
3.17979
 20
5.59685
 30
0.0
 40
0.0104177
 41
0.0104177
  0
VERTEX
  8
0
 10
3.62424
 20
5.54264
 30
0.0
 40
0.0104177
 41
0.0104177
  0
VERTEX
  8
0
 10
4.06006
 20
5.47364
 30
0.0
 40
0.0104177
 41
0.0104177
  0
VERTEX
  8
0
 10
4.48622
 20
5.39133
 30
0.0
 40
0.0104177
 41
0.0104177
  0
VERTEX
  8
0
 10
4.90158
 20
5.29747
 30
0.0
 40
0.0104177
 41
0.0104177
  0
VERTEX
  8
0
 10
5.30512
 20
5.19368
 30
0.0
 40
0.0104177
 41
0.0104177
  0
VERTEX
  8
0
 10
5.69575
 20
5.08154
 30
0.0
 40
0.0104177
 41
0.0104177
  0
VERTEX
  8
0
 10
6.07238
 20
4.96278
 30
0.0
 40
0.0104177
 41
0.0104177
  0
VERTEX
  8
0
 10
6.43397
 20
4.83897
 30
0.0
 40
0.0104177
 41
0.0104177
  0
VERTEX
  8
0
 10
6.77946
 20
4.71175
 30
0.0
 40
0.0104177
 41
0.0104177
  0
VERTEX
  8
0
 10
7.02604
 20
4.61589
 30
0.0
 40
0.0104177
 41
0.0104177
  0
VERTEX
  8
0
 10
7.10781
 20
4.58279
 30
0.0
 40
0.0104177
 41
0.0104177
  0
VERTEX
  8
0
 10
7.12201
 20
4.57704
 30
0.0
 40
0.0104177
 41
0.0104177
  0
VERTEX
  8
0
 10
7.1626
 20
4.55464
 30
0.0
 40
0.0104177
 41
0.0104177
  0
VERTEX
  8
0
 10
7.18207
 20
4.52681
 30
0.0
 40
0.0104177
 41
0.0104177
  0
VERTEX
  8
0
 10
7.16233
 20
4.49767
 30
0.0
 40
0.0104177
 41
0.0104177
  0
VERTEX
  8
0
 10
7.11589
 20
4.47217
 30
0.0
 40
0.0104177
 41
0.0104177
  0
VERTEX
  8
0
 10
7.09967
 20
4.46571
 30
0.0
 40
0.0104177
 41
0.0104177
  0
VERTEX
  8
0
 10
7.00379
 20
4.42768
 30
0.0
 40
0.0104177
 41
0.0104177
  0
VERTEX
  8
0
 10
6.71485
 20
4.317
 30
0.0
 40
0.0104177
 41
0.0104177
  0
VERTEX
  8
0
 10
6.32736
 20
4.17606
 30
0.0
 40
0.0104177
 41
0.0104177
  0
VERTEX
  8
0
 10
5.93685
 20
4.04389
 30
0.0
 40
0.0104177
 41
0.0104177
  0
VERTEX
  8
0
 10
5.54281
 20
3.92128
 30
0.0
 40
0.0104177
 41
0.0104177
  0
VERTEX
  8
0
 10
5.14492
 20
3.80925
 30
0.0
 40
0.0104177
 41
0.0104177
  0
VERTEX
  8
0
 10
4.74278
 20
3.70861
 30
0.0
 40
0.0104177
 41
0.0104177
  0
VERTEX
  8
0
 10
4.33594
 20
3.62028
 30
0.0
 40
0.0104177
 41
0.0104177
  0
VERTEX
  8
0
 10
3.92399
 20
3.54519
 30
0.0
 40
0.0104177
 41
0.0104177
  0
VERTEX
  8
0
 10
3.50657
 20
3.48421
 30
0.0
 40
0.0104177
 41
0.0104177
  0
VERTEX
  8
0
 10
3.08322
 20
3.43826
 30
0.0
 40
0.0104177
 41
0.0104177
  0
VERTEX
  8
0
 10
2.6536
 20
3.40826
 30
0.0
 40
0.0104177
 41
0.0104177
  0
VERTEX
  8
0
 10
2.21729
 20
3.39501
 30
0.0
 40
0.0104177
 41
0.0104177
  0
VERTEX
  8
0
 10
1.77388
 20
3.39953
 30
0.0
 40
0.0104177
 41
0.0104177
  0
VERTEX
  8
0
 10
1.32292
 20
3.42264
 30
0.0
 40
0.0104177
 41
0.0104177
  0
VERTEX
  8
0
 10
0.86404
 20
3.46528
 30
0.0
 40
0.0104177
 41
0.0104177
  0
VERTEX
  8
0
 10
0.513292
 20
3.51019
 30
0.0
 40
0.0104177
 41
0.0104177
  0
VERTEX
  8
0
 10
0.396918
 20
3.52832
 30
0.0
 40
0.0104177
 41
0.0104177
  0
VERTEX
  8
0
 10
0.391928
 20
5.5179
 30
0.0
 40
0.0104177
 41
0.0104177
  0
SEQEND
 8
0
  0
POLYLINE
  8
0
 62
     0
 66
     1
 10
0
 20
0
 30
0.0
 70
     1
 40
0.750075
 41
0.750075
  0
VERTEX
  8
0
 10
0.393392
 20
2.86692
 30
0.0
 40
0.0104177
 41
0.0104177
  0
VERTEX
  8
0
 10
0.392904
 20
2.15132
 30
0.0
 40
0.0104177
 41
0.0104177
  0
VERTEX
  8
0
 10
0.480414
 20
2.12651
 30
0.0
 40
0.0104177
 41
0.0104177
  0
VERTEX
  8
0
 10
0.745822
 20
2.06174
 30
0.0
 40
0.0104177
 41
0.0104177
  0
VERTEX
  8
0
 10
1.11496
 20
1.98762
 30
0.0
 40
0.0104177
 41
0.0104177
  0
VERTEX
  8
0
 10
1.49869
 20
1.9279
 30
0.0
 40
0.0104177
 41
0.0104177
  0
VERTEX
  8
0
 10
1.89551
 20
1.88157
 30
0.0
 40
0.0104177
 41
0.0104177
  0
VERTEX
  8
0
 10
2.30376
 20
1.84754
 30
0.0
 40
0.0104177
 41
0.0104177
  0
VERTEX
  8
0
 10
2.7219
 20
1.82482
 30
0.0
 40
0.0104177
 41
0.0104177
  0
VERTEX
  8
0
 10
3.14839
 20
1.81233
 30
0.0
 40
0.0104177
 41
0.0104177
  0
VERTEX
  8
0
 10
3.58154
 20
1.80903
 30
0.0
 40
0.0104177
 41
0.0104177
  0
VERTEX
  8
0
 10
4.01981
 20
1.81386
 30
0.0
 40
0.0104177
 41
0.0104177
  0
VERTEX
  8
0
 10
4.46169
 20
1.82574
 30
0.0
 40
0.0104177
 41
0.0104177
  0
VERTEX
  8
0
 10
4.90554
 20
1.84375
 30
0.0
 40
0.0104177
 41
0.0104177
  0
VERTEX
  8
0
 10
5.34978
 20
1.86669
 30
0.0
 40
0.0104177
 41
0.0104177
  0
VERTEX
  8
0
 10
5.79286
 20
1.89361
 30
0.0
 40
0.0104177
 41
0.0104177
  0
VERTEX
  8
0
 10
6.23313
 20
1.92344
 30
0.0
 40
0.0104177
 41
0.0104177
  0
VERTEX
  8
0
 10
6.66911
 20
1.95514
 30
0.0
 40
0.0104177
 41
0.0104177
  0
VERTEX
  8
0
 10
6.99164
 20
1.97939
 30
0.0
 40
0.0104177
 41
0.0104177
  0
VERTEX
  8
0
 10
7.09918
 20
1.98757
 30
0.0
 40
0.0104177
 41
0.0104177
  0
VERTEX
  8
0
 10
7.1811
 20
2.89665
 30
0.0
 40
0.0104177
 41
0.0104177
  0
VERTEX
  8
0
 10
5.9464
 20
2.88867
 30
0.0
 40
0.0104177
 41
0.0104177
  0
VERTEX
  8
0
 10
5.92557
 20
2.93001
 30
0.0
 40
0.0104177
 41
0.0104177
  0
VERTEX
  8
0
 10
4.1525
 20
2.98753
 30
0.0
 40
0.0104177
 41
0.0104177
  0
VERTEX
  8
0
 10
3.78288
 20
3.14106
 30
0.0
 40
0.0104177
 41
0.0104177
  0
VERTEX
  8
0
 10
3.73036
 20
3.14958
 30
0.0
 40
0.0104177
 41
0.0104177
  0
VERTEX
  8
0
 10
3.572
 20
3.16976
 30
0.0
 40
0.0104177
 41
0.0104177
  0
VERTEX
  8
0
 10
3.34592
 20
3.19108
 30
0.0
 40
0.0104177
 41
0.0104177
  0
VERTEX
  8
0
 10
3.10878
 20
3.20617
 30
0.0
 40
0.0104177
 41
0.0104177
  0
VERTEX
  8
0
 10
2.86464
 20
3.2161
 30
0.0
 40
0.0104177
 41
0.0104177
  0
VERTEX
  8
0
 10
2.61768
 20
3.22194
 30
0.0
 40
0.0104177
 41
0.0104177
  0
VERTEX
  8
0
 10
2.37196
 20
3.22483
 30
0.0
 40
0.0104177
 41
0.0104177
  0
VERTEX
  8
0
 10
2.13172
 20
3.22586
 30
0.0
 40
0.0104177
 41
0.0104177
  0
VERTEX
  8
0
 10
1.95871
 20
3.22601
 30
0.0
 40
0.0104177
 41
0.0104177
  0
VERTEX
  8
0
 10
1.9011
 20
3.22601
 30
0.0
 40
0.0104177
 41
0.0104177
  0
VERTEX
  8
0
 10
1.90315
 20
3.20508
 30
0.0
 40
0.0104177
 41
0.0104177
  0
VERTEX
  8
0
 10
1.87549
 20
3.01682
 30
0.0
 40
0.0104177
 41
0.0104177
  0
VERTEX
  8
0
 10
1.24995
 20
2.98996
 30
0.0
 40
0.0104177
 41
0.0104177
  0
VERTEX
  8
0
 10
1.23096
 20
2.87076
 30
0.0
 40
0.0104177
 41
0.0104177
  0
VERTEX
  8
0
 10
0.393392
 20
2.86692
 30
0.0
 40
0.0104177
 41
0.0104177
  0
SEQEND
 8
0
  0
POLYLINE
  8
0
 62
     0
 66
     1
 10
0
 20
0
 30
0.0
 40
0.162
 41
0.162
  0
VERTEX
  8
0
 10
8.29264
 20
1.22808
 30
0.0
 40
0.00225
 41
0.00225
  0
VERTEX
  8
0
 10
0.265787
 20
1.22808
 30
0.0
 40
0.00225
 41
0.00225
  0
SEQEND
 8
0
  0
POLYLINE
  8
0
 62
     0
 66
     1
 10
0
 20
0
 30
0.0
 40
0.162
 41
0.162
  0
VERTEX
  8
0
 10
0.265787
 20
2.10851
 30
0.0
 40
0.00225
 41
0.00225
  0
VERTEX
  8
0
 10
8.36947
 20
2.10851
 30
0.0
 40
0.00225
 41
0.00225
  0
SEQEND
 8
0
  0
POLYLINE
  8
0
 62
     7
 66
     1
 10
0
 20
0
 30
0.0
 70
     1
 40
0
 41
0
  0
VERTEX
  8
0
 10
3.33083
 20
1.5906
 30
0.0
 40
0
 41
0
  0
VERTEX
  8
0
 10
3.33479
 20
1.45985
 30
0.0
 40
0
 41
0
  0
VERTEX
  8
0
 10
2.89497
 20
1.22607
 30
0.0
 40
0
 41
0
  0
VERTEX
  8
0
 10
4.1709
 20
1.23003
 30
0.0
 40
0
 41
0
  0
VERTEX
  8
0
 10
4.1709
 20
1.5906
 30
0.0
 40
0
 41
0
  0
VERTEX
  8
0
 10
3.33083
 20
1.5906
 30
0.0
 40
0
 41
0
  0
SEQEND
 8
0
  0
POLYLINE
  8
0
 62
     0
 66
     1
 10
0
 20
0
 30
0.0
 70
     1
 40
0.162
 41
0.162
  0
VERTEX
  8
0
 10
3.33083
 20
1.5906
 30
0.0
 40
0.00225
 41
0.00225
  0
VERTEX
  8
0
 10
3.33479
 20
1.45985
 30
0.0
 40
0.00225
 41
0.00225
  0
VERTEX
  8
0
 10
2.89497
 20
1.22607
 30
0.0
 40
0.00225
 41
0.00225
  0
VERTEX
  8
0
 10
4.1709
 20
1.23003
 30
0.0
 40
0.00225
 41
0.00225
  0
VERTEX
  8
0
 10
4.1709
 20
1.5906
 30
0.0
 40
0.00225
 41
0.00225
  0
VERTEX
  8
0
 10
3.33083
 20
1.5906
 30
0.0
 40
0.00225
 41
0.00225
  0
SEQEND
 8
0
  0
POLYLINE
  8
0
 62
     0
 66
     1
 10
0
 20
0
 30
0.0
 70
     1
 40
0.750075
 41
0.750075
  0
VERTEX
  8
0
 10
4.08535
 20
1.0166
 30
0.0
 40
0.0104177
 41
0.0104177
  0
VERTEX
  8
0
 10
4.04769
 20
1.03505
 30
0.0
 40
0.0104177
 41
0.0104177
  0
VERTEX
  8
0
 10
3.92643
 20
1.07335
 30
0.0
 40
0.0104177
 41
0.0104177
  0
VERTEX
  8
0
 10
3.76768
 20
1.09364
 30
0.0
 40
0.0104177
 41
0.0104177
  0
VERTEX
  8
0
 10
3.61046
 20
1.0861
 30
0.0
 40
0.0104177
 41
0.0104177
  0
VERTEX
  8
0
 10
3.45622
 20
1.05908
 30
0.0
 40
0.0104177
 41
0.0104177
  0
VERTEX
  8
0
 10
3.30638
 20
1.0211
 30
0.0
 40
0.0104177
 41
0.0104177
  0
VERTEX
  8
0
 10
3.16237
 20
0.980578
 30
0.0
 40
0.0104177
 41
0.0104177
  0
VERTEX
  8
0
 10
3.02567
 20
0.945964
 30
0.0
 40
0.0104177
 41
0.0104177
  0
VERTEX
  8
0
 10
2.92985
 20
0.928386
 30
0.0
 40
0.0104177
 41
0.0104177
  0
VERTEX
  8
0
 10
2.89768
 20
0.925726
 30
0.0
 40
0.0104177
 41
0.0104177
  0
VERTEX
  8
0
 10
2.92931
 20
0.92334
 30
0.0
 40
0.0104177
 41
0.0104177
  0
VERTEX
  8
0
 10
3.02365
 20
0.906413
 30
0.0
 40
0.0104177
 41
0.0104177
  0
VERTEX
  8
0
 10
3.16081
 20
0.872558
 30
0.0
 40
0.0104177
 41
0.0104177
  0
VERTEX
  8
0
 10
3.30669
 20
0.83279
 30
0.0
 40
0.0104177
 41
0.0104177
  0
VERTEX
  8
0
 10
3.45893
 20
0.79579
 30
0.0
 40
0.0104177
 41
0.0104177
  0
VERTEX
  8
0
 10
3.61524
 20
0.770236
 30
0.0
 40
0.0104177
 41
0.0104177
  0
VERTEX
  8
0
 10
3.77317
 20
0.764757
 30
0.0
 40
0.0104177
 41
0.0104177
  0
VERTEX
  8
0
 10
3.93033
 20
0.788086
 30
0.0
 40
0.0104177
 41
0.0104177
  0
VERTEX
  8
0
 10
4.04833
 20
0.82921
 30
0.0
 40
0.0104177
 41
0.0104177
  0
VERTEX
  8
0
 10
4.08447
 20
0.848796
 30
0.0
 40
0.0104177
 41
0.0104177
  0
VERTEX
  8
0
 10
4.10015
 20
0.857314
 30
0.0
 40
0.0104177
 41
0.0104177
  0
VERTEX
  8
0
 10
4.14247
 20
0.891764
 30
0.0
 40
0.0104177
 41
0.0104177
  0
VERTEX
  8
0
 10
4.16162
 20
0.935167
 30
0.0
 40
0.0104177
 41
0.0104177
  0
VERTEX
  8
0
 10
4.14242
 20
0.977376
 30
0.0
 40
0.0104177
 41
0.0104177
  0
VERTEX
  8
0
 10
4.10069
 20
1.00906
 30
0.0
 40
0.0104177
 41
0.0104177
  0
VERTEX
  8
0
 10
4.08535
 20
1.0166
 30
0.0
 40
0.0104177
 41
0.0104177
  0
SEQEND
 8
0
  0
POLYLINE
  8
0
 62
     7
 66
     1
 10
0
 20
0
 30
0.0
 70
     1
 40
0
 41
0
  0
VERTEX
  8
0
 10
4.07389
 20
5.18386
 30
0.0
 40
0
 41
0
  0
VERTEX
  8
0
 10
4.09517
 20
5.18386
 30
0.0
 40
0
 41
0
  0
VERTEX
  8
0
 10
4.09517
 20
3.86686
 30
0.0
 40
0
 41
0
  0
VERTEX
  8
0
 10
4.07389
 20
3.86686
 30
0.0
 40
0
 41
0
  0
VERTEX
  8
0
 10
4.07389
 20
5.18386
 30
0.0
 40
0
 41
0
  0
SEQEND
 8
0
  0
POLYLINE
  8
0
 62
     0
 66
     1
 10
0
 20
0
 30
0.0
 70
     1
 40
0.162
 41
0.162
  0
VERTEX
  8
0
 10
4.07389
 20
5.18386
 30
0.0
 40
0.00225
 41
0.00225
  0
VERTEX
  8
0
 10
4.09517
 20
5.18386
 30
0.0
 40
0.00225
 41
0.00225
  0
VERTEX
  8
0
 10
4.09517
 20
3.86686
 30
0.0
 40
0.00225
 41
0.00225
  0
VERTEX
  8
0
 10
4.07389
 20
3.86686
 30
0.0
 40
0.00225
 41
0.00225
  0
VERTEX
  8
0
 10
4.07389
 20
5.18386
 30
0.0
 40
0.00225
 41
0.00225
  0
SEQEND
 8
0
  0
POLYLINE
  8
0
 62
     7
 66
     1
 10
0
 20
0
 30
0.0
 70
     1
 40
0
 41
0
  0
VERTEX
  8
0
 10
4.08979
 20
5.07167
 30
0.0
 40
0
 41
0
  0
VERTEX
  8
0
 10
4.13997
 20
5.07167
 30
0.0
 40
0
 41
0
  0
VERTEX
  8
0
 10
4.13997
 20
3.97911
 30
0.0
 40
0
 41
0
  0
VERTEX
  8
0
 10
4.08979
 20
3.97911
 30
0.0
 40
0
 41
0
  0
VERTEX
  8
0
 10
4.08979
 20
5.07167
 30
0.0
 40
0
 41
0
  0
SEQEND
 8
0
  0
POLYLINE
  8
0
 62
     0
 66
     1
 10
0
 20
0
 30
0.0
 70
     1
 40
0.750075
 41
0.750075
  0
VERTEX
  8
0
 10
4.08979
 20
5.07167
 30
0.0
 40
0.0104177
 41
0.0104177
  0
VERTEX
  8
0
 10
4.13997
 20
5.07167
 30
0.0
 40
0.0104177
 41
0.0104177
  0
VERTEX
  8
0
 10
4.13997
 20
3.97911
 30
0.0
 40
0.0104177
 41
0.0104177
  0
VERTEX
  8
0
 10
4.08979
 20
3.97911
 30
0.0
 40
0.0104177
 41
0.0104177
  0
VERTEX
  8
0
 10
4.08979
 20
5.07167
 30
0.0
 40
0.0104177
 41
0.0104177
  0
SEQEND
 8
0
  0
POLYLINE
  8
0
 62
     7
 66
     1
 10
0
 20
0
 30
0.0
 70
     1
 40
0
 41
0
  0
VERTEX
  8
0
 10
3.92503
 20
5.08051
 30
0.0
 40
0
 41
0
  0
VERTEX
  8
0
 10
3.97521
 20
5.08051
 30
0.0
 40
0
 41
0
  0
VERTEX
  8
0
 10
3.97521
 20
3.97026
 30
0.0
 40
0
 41
0
  0
VERTEX
  8
0
 10
3.92503
 20
3.97026
 30
0.0
 40
0
 41
0
  0
VERTEX
  8
0
 10
3.92503
 20
5.08051
 30
0.0
 40
0
 41
0
  0
SEQEND
 8
0
  0
POLYLINE
  8
0
 62
     0
 66
     1
 10
0
 20
0
 30
0.0
 70
     1
 40
0.750075
 41
0.750075
  0
VERTEX
  8
0
 10
3.92503
 20
5.08051
 30
0.0
 40
0.0104177
 41
0.0104177
  0
VERTEX
  8
0
 10
3.97521
 20
5.08051
 30
0.0
 40
0.0104177
 41
0.0104177
  0
VERTEX
  8
0
 10
3.97521
 20
3.97026
 30
0.0
 40
0.0104177
 41
0.0104177
  0
VERTEX
  8
0
 10
3.92503
 20
3.97026
 30
0.0
 40
0.0104177
 41
0.0104177
  0
VERTEX
  8
0
 10
3.92503
 20
5.08051
 30
0.0
 40
0.0104177
 41
0.0104177
  0
SEQEND
 8
0
  0
POLYLINE
  8
0
 62
     7
 66
     1
 10
0
 20
0
 30
0.0
 70
     1
 40
0
 41
0
  0
VERTEX
  8
0
 10
3.76025
 20
5.08643
 30
0.0
 40
0
 41
0
  0
VERTEX
  8
0
 10
3.81044
 20
5.08643
 30
0.0
 40
0
 41
0
  0
VERTEX
  8
0
 10
3.81044
 20
3.96436
 30
0.0
 40
0
 41
0
  0
VERTEX
  8
0
 10
3.76025
 20
3.96436
 30
0.0
 40
0
 41
0
  0
VERTEX
  8
0
 10
3.76025
 20
5.08643
 30
0.0
 40
0
 41
0
  0
SEQEND
 8
0
  0
POLYLINE
  8
0
 62
     0
 66
     1
 10
0
 20
0
 30
0.0
 70
     1
 40
0.750075
 41
0.750075
  0
VERTEX
  8
0
 10
3.76025
 20
5.08643
 30
0.0
 40
0.0104177
 41
0.0104177
  0
VERTEX
  8
0
 10
3.81044
 20
5.08643
 30
0.0
 40
0.0104177
 41
0.0104177
  0
VERTEX
  8
0
 10
3.81044
 20
3.96436
 30
0.0
 40
0.0104177
 41
0.0104177
  0
VERTEX
  8
0
 10
3.76025
 20
3.96436
 30
0.0
 40
0.0104177
 41
0.0104177
  0
VERTEX
  8
0
 10
3.76025
 20
5.08643
 30
0.0
 40
0.0104177
 41
0.0104177
  0
SEQEND
 8
0
  0
POLYLINE
  8
0
 62
     7
 66
     1
 10
0
 20
0
 30
0.0
 70
     1
 40
0
 41
0
  0
VERTEX
  8
0
 10
3.59625
 20
5.10118
 30
0.0
 40
0
 41
0
  0
VERTEX
  8
0
 10
3.64643
 20
5.10118
 30
0.0
 40
0
 41
0
  0
VERTEX
  8
0
 10
3.64643
 20
3.9496
 30
0.0
 40
0
 41
0
  0
VERTEX
  8
0
 10
3.59625
 20
3.9496
 30
0.0
 40
0
 41
0
  0
VERTEX
  8
0
 10
3.59625
 20
5.10118
 30
0.0
 40
0
 41
0
  0
SEQEND
 8
0
  0
POLYLINE
  8
0
 62
     0
 66
     1
 10
0
 20
0
 30
0.0
 70
     1
 40
0.750075
 41
0.750075
  0
VERTEX
  8
0
 10
3.59625
 20
5.10118
 30
0.0
 40
0.0104177
 41
0.0104177
  0
VERTEX
  8
0
 10
3.64643
 20
5.10118
 30
0.0
 40
0.0104177
 41
0.0104177
  0
VERTEX
  8
0
 10
3.64643
 20
3.9496
 30
0.0
 40
0.0104177
 41
0.0104177
  0
VERTEX
  8
0
 10
3.59625
 20
3.9496
 30
0.0
 40
0.0104177
 41
0.0104177
  0
VERTEX
  8
0
 10
3.59625
 20
5.10118
 30
0.0
 40
0.0104177
 41
0.0104177
  0
SEQEND
 8
0
  0
POLYLINE
  8
0
 62
     7
 66
     1
 10
0
 20
0
 30
0.0
 70
     1
 40
0
 41
0
  0
VERTEX
  8
0
 10
3.44254
 20
5.116
 30
0.0
 40
0
 41
0
  0
VERTEX
  8
0
 10
3.49274
 20
5.116
 30
0.0
 40
0
 41
0
  0
VERTEX
  8
0
 10
3.49274
 20
3.9349
 30
0.0
 40
0
 41
0
  0
VERTEX
  8
0
 10
3.44254
 20
3.9349
 30
0.0
 40
0
 41
0
  0
VERTEX
  8
0
 10
3.44254
 20
5.116
 30
0.0
 40
0
 41
0
  0
SEQEND
 8
0
  0
POLYLINE
  8
0
 62
     0
 66
     1
 10
0
 20
0
 30
0.0
 70
     1
 40
0.750075
 41
0.750075
  0
VERTEX
  8
0
 10
3.44254
 20
5.116
 30
0.0
 40
0.0104177
 41
0.0104177
  0
VERTEX
  8
0
 10
3.49274
 20
5.116
 30
0.0
 40
0.0104177
 41
0.0104177
  0
VERTEX
  8
0
 10
3.49274
 20
3.9349
 30
0.0
 40
0.0104177
 41
0.0104177
  0
VERTEX
  8
0
 10
3.44254
 20
3.9349
 30
0.0
 40
0.0104177
 41
0.0104177
  0
VERTEX
  8
0
 10
3.44254
 20
5.116
 30
0.0
 40
0.0104177
 41
0.0104177
  0
SEQEND
 8
0
  0
POLYLINE
  8
0
 62
     0
 66
     1
 10
0
 20
0
 30
0.0
 70
     1
 40
0.750075
 41
0.750075
  0
VERTEX
  8
0
 10
4.10622
 20
0.959364
 30
0.0
 40
0.0104177
 41
0.0104177
  0
VERTEX
  8
0
 10
4.08496
 20
0.966308
 30
0.0
 40
0.0104177
 41
0.0104177
  0
VERTEX
  8
0
 10
4.0185
 20
0.978733
 30
0.0
 40
0.0104177
 41
0.0104177
  0
VERTEX
  8
0
 10
3.92096
 20
0.98546
 30
0.0
 40
0.0104177
 41
0.0104177
  0
VERTEX
  8
0
 10
3.81694
 20
0.982531
 30
0.0
 40
0.0104177
 41
0.0104177
  0
VERTEX
  8
0
 10
3.71001
 20
0.972982
 30
0.0
 40
0.0104177
 41
0.0104177
  0
VERTEX
  8
0
 10
3.60346
 20
0.95969
 30
0.0
 40
0.0104177
 41
0.0104177
  0
VERTEX
  8
0
 10
3.50076
 20
0.945747
 30
0.0
 40
0.0104177
 41
0.0104177
  0
VERTEX
  8
0
 10
3.40533
 20
0.934136
 30
0.0
 40
0.0104177
 41
0.0104177
  0
VERTEX
  8
0
 10
3.34185
 20
0.928549
 30
0.0
 40
0.0104177
 41
0.0104177
  0
VERTEX
  8
0
 10
3.32069
 20
0.927789
 30
0.0
 40
0.0104177
 41
0.0104177
  0
VERTEX
  8
0
 10
3.34169
 20
0.927246
 30
0.0
 40
0.0104177
 41
0.0104177
  0
VERTEX
  8
0
 10
3.40474
 20
0.921821
 30
0.0
 40
0.0104177
 41
0.0104177
  0
VERTEX
  8
0
 10
3.49864
 20
0.910047
 30
0.0
 40
0.0104177
 41
0.0104177
  0
VERTEX
  8
0
 10
3.59967
 20
0.895562
 30
0.0
 40
0.0104177
 41
0.0104177
  0
VERTEX
  8
0
 10
3.70475
 20
0.881565
 30
0.0
 40
0.0104177
 41
0.0104177
  0
VERTEX
  8
0
 10
3.81114
 20
0.871149
 30
0.0
 40
0.0104177
 41
0.0104177
  0
VERTEX
  8
0
 10
3.91596
 20
0.867404
 30
0.0
 40
0.0104177
 41
0.0104177
  0
VERTEX
  8
0
 10
4.01622
 20
0.873535
 30
0.0
 40
0.0104177
 41
0.0104177
  0
VERTEX
  8
0
 10
4.08653
 20
0.885796
 30
0.0
 40
0.0104177
 41
0.0104177
  0
VERTEX
  8
0
 10
4.10915
 20
0.892578
 30
0.0
 40
0.0104177
 41
0.0104177
  0
VERTEX
  8
0
 10
4.11865
 20
0.895454
 30
0.0
 40
0.0104177
 41
0.0104177
  0
VERTEX
  8
0
 10
4.14583
 20
0.908637
 30
0.0
 40
0.0104177
 41
0.0104177
  0
VERTEX
  8
0
 10
4.15663
 20
0.925726
 30
0.0
 40
0.0104177
 41
0.0104177
  0
VERTEX
  8
0
 10
4.14296
 20
0.942979
 30
0.0
 40
0.0104177
 41
0.0104177
  0
VERTEX
  8
0
 10
4.11572
 20
0.956272
 30
0.0
 40
0.0104177
 41
0.0104177
  0
VERTEX
  8
0
 10
4.10622
 20
0.959364
 30
0.0
 40
0.0104177
 41
0.0104177
  0
SEQEND
 8
0
  0
POLYLINE
  8
0
 62
     0
 66
     1
 10
0
 20
0
 30
0.0
 70
     1
 40
0.750075
 41
0.750075
  0
VERTEX
  8
0
 10
4.58529
 20
2.11236
 30
0.0
 40
0.0104177
 41
0.0104177
  0
VERTEX
  8
0
 10
4.76247
 20
2.11236
 30
0.0
 40
0.0104177
 41
0.0104177
  0
VERTEX
  8
0
 10
4.76247
 20
0.990289
 30
0.0
 40
0.0104177
 41
0.0104177
  0
VERTEX
  8
0
 10
4.58529
 20
0.990289
 30
0.0
 40
0.0104177
 41
0.0104177
  0
VERTEX
  8
0
 10
4.58529
 20
2.11236
 30
0.0
 40
0.0104177
 41
0.0104177
  0
SEQEND
 8
0
  0
POLYLINE
  8
0
 62
     0
 66
     1
 10
0
 20
0
 30
0.0
 70
     1
 40
0.637575
 41
0.637575
  0
VERTEX
  8
0
 10
3.32671
 20
1.79958
 30
0.0
 40
0.00885521
 41
0.00885521
  0
VERTEX
  8
0
 10
3.33057
 20
1.45464
 30
0.0
 40
0.00885521
 41
0.00885521
  0
VERTEX
  8
0
 10
2.90283
 20
1.22727
 30
0.0
 40
0.00885521
 41
0.00885521
  0
VERTEX
  8
0
 10
4.16672
 20
1.23513
 30
0.0
 40
0.00885521
 41
0.00885521
  0
VERTEX
  8
0
 10
4.16699
 20
1.81076
 30
0.0
 40
0.00885521
 41
0.00885521
  0
VERTEX
  8
0
 10
3.32671
 20
1.79958
 30
0.0
 40
0.00885521
 41
0.00885521
  0
SEQEND
 8
0
  0
POLYLINE
  8
0
 62
     0
 66
     1
 10
0
 20
0
 30
0.0
 40
0.162
 41
0.162
  0
VERTEX
  8
0
 10
2.74436
 20
0.926594
 30
0.0
 40
0.00225
 41
0.00225
  0
VERTEX
  8
0
 10
4.30561
 20
0.926594
 30
0.0
 40
0.00225
 41
0.00225
  0
SEQEND
 8
0
  0
POLYLINE
  8
0
 62
     0
 66
     1
 10
0
 20
0
 30
0.0
 70
     1
 40
0.750075
 41
0.750075
  0
VERTEX
  8
0
 10
4.07042
 20
4.61296
 30
0.0
 40
0.0104177
 41
0.0104177
  0
VERTEX
  8
0
 10
4.03276
 20
4.6314
 30
0.0
 40
0.0104177
 41
0.0104177
  0
VERTEX
  8
0
 10
3.91157
 20
4.66971
 30
0.0
 40
0.0104177
 41
0.0104177
  0
VERTEX
  8
0
 10
3.75282
 20
4.69
 30
0.0
 40
0.0104177
 41
0.0104177
  0
VERTEX
  8
0
 10
3.59554
 20
4.68246
 30
0.0
 40
0.0104177
 41
0.0104177
  0
VERTEX
  8
0
 10
3.44129
 20
4.65543
 30
0.0
 40
0.0104177
 41
0.0104177
  0
VERTEX
  8
0
 10
3.29144
 20
4.61746
 30
0.0
 40
0.0104177
 41
0.0104177
  0
VERTEX
  8
0
 10
3.14746
 20
4.57693
 30
0.0
 40
0.0104177
 41
0.0104177
  0
VERTEX
  8
0
 10
3.01074
 20
4.54237
 30
0.0
 40
0.0104177
 41
0.0104177
  0
VERTEX
  8
0
 10
2.91493
 20
4.52479
 30
0.0
 40
0.0104177
 41
0.0104177
  0
VERTEX
  8
0
 10
2.88276
 20
4.52214
 30
0.0
 40
0.0104177
 41
0.0104177
  0
VERTEX
  8
0
 10
2.91439
 20
4.51975
 30
0.0
 40
0.0104177
 41
0.0104177
  0
VERTEX
  8
0
 10
3.00874
 20
4.50282
 30
0.0
 40
0.0104177
 41
0.0104177
  0
VERTEX
  8
0
 10
3.14589
 20
4.46892
 30
0.0
 40
0.0104177
 41
0.0104177
  0
VERTEX
  8
0
 10
3.29178
 20
4.42914
 30
0.0
 40
0.0104177
 41
0.0104177
  0
VERTEX
  8
0
 10
3.44407
 20
4.39214
 30
0.0
 40
0.0104177
 41
0.0104177
  0
VERTEX
  8
0
 10
3.60032
 20
4.3666
 30
0.0
 40
0.0104177
 41
0.0104177
  0
VERTEX
  8
0
 10
3.75825
 20
4.36117
 30
0.0
 40
0.0104177
 41
0.0104177
  0
VERTEX
  8
0
 10
3.91542
 20
4.3845
 30
0.0
 40
0.0104177
 41
0.0104177
  0
VERTEX
  8
0
 10
4.03342
 20
4.42562
 30
0.0
 40
0.0104177
 41
0.0104177
  0
VERTEX
  8
0
 10
4.06956
 20
4.44521
 30
0.0
 40
0.0104177
 41
0.0104177
  0
VERTEX
  8
0
 10
4.08524
 20
4.45372
 30
0.0
 40
0.0104177
 41
0.0104177
  0
VERTEX
  8
0
 10
4.12756
 20
4.48817
 30
0.0
 40
0.0104177
 41
0.0104177
  0
VERTEX
  8
0
 10
4.14671
 20
4.53153
 30
0.0
 40
0.0104177
 41
0.0104177
  0
VERTEX
  8
0
 10
4.1275
 20
4.57374
 30
0.0
 40
0.0104177
 41
0.0104177
  0
VERTEX
  8
0
 10
4.08578
 20
4.60542
 30
0.0
 40
0.0104177
 41
0.0104177
  0
VERTEX
  8
0
 10
4.07042
 20
4.61296
 30
0.0
 40
0.0104177
 41
0.0104177
  0
SEQEND
 8
0
  0
POLYLINE
  8
0
 62
     0
 66
     1
 10
0
 20
0
 30
0.0
 70
     1
 40
0.750075
 41
0.750075
  0
VERTEX
  8
0
 10
4.09131
 20
4.55572
 30
0.0
 40
0.0104177
 41
0.0104177
  0
VERTEX
  8
0
 10
4.06928
 20
4.56326
 30
0.0
 40
0.0104177
 41
0.0104177
  0
VERTEX
  8
0
 10
4.00032
 20
4.57731
 30
0.0
 40
0.0104177
 41
0.0104177
  0
VERTEX
  8
0
 10
3.90082
 20
4.58535
 30
0.0
 40
0.0104177
 41
0.0104177
  0
VERTEX
  8
0
 10
3.79611
 20
4.5829
 30
0.0
 40
0.0104177
 41
0.0104177
  0
VERTEX
  8
0
 10
3.68935
 20
4.57319
 30
0.0
 40
0.0104177
 41
0.0104177
  0
VERTEX
  8
0
 10
3.58371
 20
4.55935
 30
0.0
 40
0.0104177
 41
0.0104177
  0
VERTEX
  8
0
 10
3.48242
 20
4.54449
 30
0.0
 40
0.0104177
 41
0.0104177
  0
VERTEX
  8
0
 10
3.38867
 20
4.53174
 30
0.0
 40
0.0104177
 41
0.0104177
  0
VERTEX
  8
0
 10
3.3265
 20
4.52522
 30
0.0
 40
0.0104177
 41
0.0104177
  0
VERTEX
  8
0
 10
3.30578
 20
4.52419
 30
0.0
 40
0.0104177
 41
0.0104177
  0
VERTEX
  8
0
 10
3.32676
 20
4.52365
 30
0.0
 40
0.0104177
 41
0.0104177
  0
VERTEX
  8
0
 10
3.38981
 20
4.51824
 30
0.0
 40
0.0104177
 41
0.0104177
  0
VERTEX
  8
0
 10
3.48372
 20
4.50646
 30
0.0
 40
0.0104177
 41
0.0104177
  0
VERTEX
  8
0
 10
3.58475
 20
4.49197
 30
0.0
 40
0.0104177
 41
0.0104177
  0
VERTEX
  8
0
 10
3.68983
 20
4.47797
 30
0.0
 40
0.0104177
 41
0.0104177
  0
VERTEX
  8
0
 10
3.79628
 20
4.46756
 30
0.0
 40
0.0104177
 41
0.0104177
  0
VERTEX
  8
0
 10
3.90104
 20
4.46382
 30
0.0
 40
0.0104177
 41
0.0104177
  0
VERTEX
  8
0
 10
4.00136
 20
4.46994
 30
0.0
 40
0.0104177
 41
0.0104177
  0
VERTEX
  8
0
 10
4.07167
 20
4.48221
 30
0.0
 40
0.0104177
 41
0.0104177
  0
VERTEX
  8
0
 10
4.09429
 20
4.48899
 30
0.0
 40
0.0104177
 41
0.0104177
  0
VERTEX
  8
0
 10
4.10374
 20
4.49186
 30
0.0
 40
0.0104177
 41
0.0104177
  0
VERTEX
  8
0
 10
4.13086
 20
4.50489
 30
0.0
 40
0.0104177
 41
0.0104177
  0
VERTEX
  8
0
 10
4.1415
 20
4.52181
 30
0.0
 40
0.0104177
 41
0.0104177
  0
VERTEX
  8
0
 10
4.12776
 20
4.53907
 30
0.0
 40
0.0104177
 41
0.0104177
  0
VERTEX
  8
0
 10
4.10069
 20
4.55251
 30
0.0
 40
0.0104177
 41
0.0104177
  0
VERTEX
  8
0
 10
4.09131
 20
4.55572
 30
0.0
 40
0.0104177
 41
0.0104177
  0
SEQEND
 8
0
  0
POLYLINE
  8
0
 62
     0
 66
     1
 10
0
 20
0
 30
0.0
 40
0.162
 41
0.162
  0
VERTEX
  8
0
 10
2.72944
 20
4.523
 30
0.0
 40
0.00225
 41
0.00225
  0
VERTEX
  8
0
 10
4.29075
 20
4.523
 30
0.0
 40
0.00225
 41
0.00225
  0
SEQEND
 8
0
  0
POLYLINE
  8
0
 62
     0
 66
     1
 10
0
 20
0
 30
0.0
 70
     1
 40
0.637575
 41
0.637575
  0
VERTEX
  8
0
 10
6.95313
 20
1.80963
 30
0.0
 40
0.00885521
 41
0.00885521
  0
VERTEX
  8
0
 10
7.07124
 20
1.80963
 30
0.0
 40
0.00885521
 41
0.00885521
  0
VERTEX
  8
0
 10
7.07124
 20
1.47949
 30
0.0
 40
0.00885521
 41
0.00885521
  0
VERTEX
  8
0
 10
7.17632
 20
1.23579
 30
0.0
 40
0.00885521
 41
0.00885521
  0
VERTEX
  8
0
 10
6.85097
 20
1.23579
 30
0.0
 40
0.00885521
 41
0.00885521
  0
VERTEX
  8
0
 10
6.95313
 20
1.47949
 30
0.0
 40
0.00885521
 41
0.00885521
  0
VERTEX
  8
0
 10
6.95313
 20
1.80963
 30
0.0
 40
0.00885521
 41
0.00885521
  0
SEQEND
 8
0
  0
POLYLINE
  8
0
 62
     0
 66
     1
 10
0
 20
0
 30
0.0
 40
0.750075
 41
0.750075
  0
VERTEX
  8
0
 10
2.91656
 20
1.23796
 30
0.0
 40
0.0104177
 41
0.0104177
  0
VERTEX
  8
0
 10
4.17036
 20
1.24029
 30
0.0
 40
0.0104177
 41
0.0104177
  0
SEQEND
 8
0
  0
POLYLINE
  8
0
 62
     0
 66
     1
 10
0
 20
0
 30
0.0
 70
     1
 40
0.637575
 41
0.637575
  0
VERTEX
  8
0
 10
3.43869
 20
4.55035
 30
0.0
 40
0.00885521
 41
0.00885521
  0
VERTEX
  8
0
 10
4.139
 20
4.55035
 30
0.0
 40
0.00885521
 41
0.00885521
  0
VERTEX
  8
0
 10
4.139
 20
4.50017
 30
0.0
 40
0.00885521
 41
0.00885521
  0
VERTEX
  8
0
 10
3.43869
 20
4.50017
 30
0.0
 40
0.00885521
 41
0.00885521
  0
VERTEX
  8
0
 10
3.43869
 20
4.55035
 30
0.0
 40
0.00885521
 41
0.00885521
  0
SEQEND
 8
0
  0
POLYLINE
  8
0
 62
     0
 66
     1
 10
0
 20
0
 30
0.0
 70
     1
 40
0.750075
 41
0.750075
  0
VERTEX
  8
0
 10
3.47021
 20
4.53217
 30
0.0
 40
0.0104177
 41
0.0104177
  0
VERTEX
  8
0
 10
3.47168
 20
4.53217
 30
0.0
 40
0.0104177
 41
0.0104177
  0
VERTEX
  8
0
 10
3.47613
 20
4.52778
 30
0.0
 40
0.0104177
 41
0.0104177
  0
VERTEX
  8
0
 10
3.47613
 20
4.52626
 30
0.0
 40
0.0104177
 41
0.0104177
  0
VERTEX
  8
0
 10
3.47613
 20
4.5249
 30
0.0
 40
0.0104177
 41
0.0104177
  0
VERTEX
  8
0
 10
3.47244
 20
4.52083
 30
0.0
 40
0.0104177
 41
0.0104177
  0
VERTEX
  8
0
 10
3.46696
 20
4.52115
 30
0.0
 40
0.0104177
 41
0.0104177
  0
VERTEX
  8
0
 10
3.46604
 20
4.52208
 30
0.0
 40
0.0104177
 41
0.0104177
  0
VERTEX
  8
0
 10
3.46511
 20
4.52306
 30
0.0
 40
0.0104177
 41
0.0104177
  0
VERTEX
  8
0
 10
3.46474
 20
4.52854
 30
0.0
 40
0.0104177
 41
0.0104177
  0
VERTEX
  8
0
 10
3.46881
 20
4.53217
 30
0.0
 40
0.0104177
 41
0.0104177
  0
VERTEX
  8
0
 10
3.47021
 20
4.53217
 30
0.0
 40
0.0104177
 41
0.0104177
  0
SEQEND
 8
0
  0
POLYLINE
  8
0
 62
     0
 66
     1
 10
0
 20
0
 30
0.0
 70
     1
 40
0.750075
 41
0.750075
  0
VERTEX
  8
0
 10
3.61914
 20
4.55772
 30
0.0
 40
0.0104177
 41
0.0104177
  0
VERTEX
  8
0
 10
3.62061
 20
4.55772
 30
0.0
 40
0.0104177
 41
0.0104177
  0
VERTEX
  8
0
 10
3.62506
 20
4.55333
 30
0.0
 40
0.0104177
 41
0.0104177
  0
VERTEX
  8
0
 10
3.62506
 20
4.55186
 30
0.0
 40
0.0104177
 41
0.0104177
  0
VERTEX
  8
0
 10
3.62506
 20
4.55051
 30
0.0
 40
0.0104177
 41
0.0104177
  0
VERTEX
  8
0
 10
3.62136
 20
4.54644
 30
0.0
 40
0.0104177
 41
0.0104177
  0
VERTEX
  8
0
 10
3.61589
 20
4.54676
 30
0.0
 40
0.0104177
 41
0.0104177
  0
VERTEX
  8
0
 10
3.61496
 20
4.54769
 30
0.0
 40
0.0104177
 41
0.0104177
  0
VERTEX
  8
0
 10
3.61404
 20
4.54861
 30
0.0
 40
0.0104177
 41
0.0104177
  0
VERTEX
  8
0
 10
3.61367
 20
4.5541
 30
0.0
 40
0.0104177
 41
0.0104177
  0
VERTEX
  8
0
 10
3.61774
 20
4.55772
 30
0.0
 40
0.0104177
 41
0.0104177
  0
VERTEX
  8
0
 10
3.61914
 20
4.55772
 30
0.0
 40
0.0104177
 41
0.0104177
  0
SEQEND
 8
0
  0
POLYLINE
  8
0
 62
     0
 66
     1
 10
0
 20
0
 30
0.0
 70
     1
 40
0.750075
 41
0.750075
  0
VERTEX
  8
0
 10
3.62039
 20
4.5006
 30
0.0
 40
0.0104177
 41
0.0104177
  0
VERTEX
  8
0
 10
3.62185
 20
4.5006
 30
0.0
 40
0.0104177
 41
0.0104177
  0
VERTEX
  8
0
 10
3.62625
 20
4.49621
 30
0.0
 40
0.0104177
 41
0.0104177
  0
VERTEX
  8
0
 10
3.62625
 20
4.49468
 30
0.0
 40
0.0104177
 41
0.0104177
  0
VERTEX
  8
0
 10
3.62625
 20
4.49333
 30
0.0
 40
0.0104177
 41
0.0104177
  0
VERTEX
  8
0
 10
3.62261
 20
4.48926
 30
0.0
 40
0.0104177
 41
0.0104177
  0
VERTEX
  8
0
 10
3.61714
 20
4.48958
 30
0.0
 40
0.0104177
 41
0.0104177
  0
VERTEX
  8
0
 10
3.61621
 20
4.4905
 30
0.0
 40
0.0104177
 41
0.0104177
  0
VERTEX
  8
0
 10
3.61524
 20
4.49143
 30
0.0
 40
0.0104177
 41
0.0104177
  0
VERTEX
  8
0
 10
3.6149
 20
4.49696
 30
0.0
 40
0.0104177
 41
0.0104177
  0
VERTEX
  8
0
 10
3.61897
 20
4.5006
 30
0.0
 40
0.0104177
 41
0.0104177
  0
VERTEX
  8
0
 10
3.62039
 20
4.5006
 30
0.0
 40
0.0104177
 41
0.0104177
  0
SEQEND
 8
0
  0
POLYLINE
  8
0
 62
     0
 66
     1
 10
0
 20
0
 30
0.0
 70
     1
 40
0.750075
 41
0.750075
  0
VERTEX
  8
0
 10
3.78711
 20
4.57269
 30
0.0
 40
0.0104177
 41
0.0104177
  0
VERTEX
  8
0
 10
3.78857
 20
4.57269
 30
0.0
 40
0.0104177
 41
0.0104177
  0
VERTEX
  8
0
 10
3.79303
 20
4.56831
 30
0.0
 40
0.0104177
 41
0.0104177
  0
VERTEX
  8
0
 10
3.79303
 20
4.56679
 30
0.0
 40
0.0104177
 41
0.0104177
  0
VERTEX
  8
0
 10
3.79303
 20
4.56543
 30
0.0
 40
0.0104177
 41
0.0104177
  0
VERTEX
  8
0
 10
3.78933
 20
4.56136
 30
0.0
 40
0.0104177
 41
0.0104177
  0
VERTEX
  8
0
 10
3.78386
 20
4.56168
 30
0.0
 40
0.0104177
 41
0.0104177
  0
VERTEX
  8
0
 10
3.78293
 20
4.56261
 30
0.0
 40
0.0104177
 41
0.0104177
  0
VERTEX
  8
0
 10
3.78196
 20
4.56353
 30
0.0
 40
0.0104177
 41
0.0104177
  0
VERTEX
  8
0
 10
3.78163
 20
4.56907
 30
0.0
 40
0.0104177
 41
0.0104177
  0
VERTEX
  8
0
 10
3.78569
 20
4.57269
 30
0.0
 40
0.0104177
 41
0.0104177
  0
VERTEX
  8
0
 10
3.78711
 20
4.57269
 30
0.0
 40
0.0104177
 41
0.0104177
  0
SEQEND
 8
0
  0
POLYLINE
  8
0
 62
     0
 66
     1
 10
0
 20
0
 30
0.0
 70
     1
 40
0.750075
 41
0.750075
  0
VERTEX
  8
0
 10
3.78711
 20
4.48872
 30
0.0
 40
0.0104177
 41
0.0104177
  0
VERTEX
  8
0
 10
3.78857
 20
4.48872
 30
0.0
 40
0.0104177
 41
0.0104177
  0
VERTEX
  8
0
 10
3.79303
 20
4.48432
 30
0.0
 40
0.0104177
 41
0.0104177
  0
VERTEX
  8
0
 10
3.79303
 20
4.48281
 30
0.0
 40
0.0104177
 41
0.0104177
  0
VERTEX
  8
0
 10
3.79303
 20
4.48144
 30
0.0
 40
0.0104177
 41
0.0104177
  0
VERTEX
  8
0
 10
3.78933
 20
4.47738
 30
0.0
 40
0.0104177
 41
0.0104177
  0
VERTEX
  8
0
 10
3.78386
 20
4.47771
 30
0.0
 40
0.0104177
 41
0.0104177
  0
VERTEX
  8
0
 10
3.78293
 20
4.47863
 30
0.0
 40
0.0104177
 41
0.0104177
  0
VERTEX
  8
0
 10
3.78196
 20
4.47954
 30
0.0
 40
0.0104177
 41
0.0104177
  0
VERTEX
  8
0
 10
3.78163
 20
4.48508
 30
0.0
 40
0.0104177
 41
0.0104177
  0
VERTEX
  8
0
 10
3.78569
 20
4.48872
 30
0.0
 40
0.0104177
 41
0.0104177
  0
VERTEX
  8
0
 10
3.78711
 20
4.48872
 30
0.0
 40
0.0104177
 41
0.0104177
  0
SEQEND
 8
0
  0
POLYLINE
  8
0
 62
     0
 66
     1
 10
0
 20
0
 30
0.0
 70
     1
 40
0.750075
 41
0.750075
  0
VERTEX
  8
0
 10
3.95318
 20
4.57454
 30
0.0
 40
0.0104177
 41
0.0104177
  0
VERTEX
  8
0
 10
3.95464
 20
4.57454
 30
0.0
 40
0.0104177
 41
0.0104177
  0
VERTEX
  8
0
 10
3.9591
 20
4.57015
 30
0.0
 40
0.0104177
 41
0.0104177
  0
VERTEX
  8
0
 10
3.9591
 20
4.56863
 30
0.0
 40
0.0104177
 41
0.0104177
  0
VERTEX
  8
0
 10
3.9591
 20
4.56728
 30
0.0
 40
0.0104177
 41
0.0104177
  0
VERTEX
  8
0
 10
3.9554
 20
4.56321
 30
0.0
 40
0.0104177
 41
0.0104177
  0
VERTEX
  8
0
 10
3.94993
 20
4.56353
 30
0.0
 40
0.0104177
 41
0.0104177
  0
VERTEX
  8
0
 10
3.949
 20
4.56446
 30
0.0
 40
0.0104177
 41
0.0104177
  0
VERTEX
  8
0
 10
3.94808
 20
4.56543
 30
0.0
 40
0.0104177
 41
0.0104177
  0
VERTEX
  8
0
 10
3.94769
 20
4.5709
 30
0.0
 40
0.0104177
 41
0.0104177
  0
VERTEX
  8
0
 10
3.95176
 20
4.57454
 30
0.0
 40
0.0104177
 41
0.0104177
  0
VERTEX
  8
0
 10
3.95318
 20
4.57454
 30
0.0
 40
0.0104177
 41
0.0104177
  0
SEQEND
 8
0
  0
POLYLINE
  8
0
 62
     0
 66
     1
 10
0
 20
0
 30
0.0
 70
     1
 40
0.750075
 41
0.750075
  0
VERTEX
  8
0
 10
3.94943
 20
4.48497
 30
0.0
 40
0.0104177
 41
0.0104177
  0
VERTEX
  8
0
 10
3.9509
 20
4.48497
 30
0.0
 40
0.0104177
 41
0.0104177
  0
VERTEX
  8
0
 10
3.95535
 20
4.48058
 30
0.0
 40
0.0104177
 41
0.0104177
  0
VERTEX
  8
0
 10
3.95535
 20
4.47906
 30
0.0
 40
0.0104177
 41
0.0104177
  0
VERTEX
  8
0
 10
3.95535
 20
4.47771
 30
0.0
 40
0.0104177
 41
0.0104177
  0
VERTEX
  8
0
 10
3.95171
 20
4.47364
 30
0.0
 40
0.0104177
 41
0.0104177
  0
VERTEX
  8
0
 10
3.94624
 20
4.47396
 30
0.0
 40
0.0104177
 41
0.0104177
  0
VERTEX
  8
0
 10
3.94532
 20
4.47488
 30
0.0
 40
0.0104177
 41
0.0104177
  0
VERTEX
  8
0
 10
3.94433
 20
4.47586
 30
0.0
 40
0.0104177
 41
0.0104177
  0
VERTEX
  8
0
 10
3.94401
 20
4.48133
 30
0.0
 40
0.0104177
 41
0.0104177
  0
VERTEX
  8
0
 10
3.94808
 20
4.48497
 30
0.0
 40
0.0104177
 41
0.0104177
  0
VERTEX
  8
0
 10
3.94943
 20
4.48497
 30
0.0
 40
0.0104177
 41
0.0104177
  0
SEQEND
 8
0
  0
POLYLINE
  8
0
 62
     0
 66
     1
 10
0
 20
0
 30
0.0
 70
     1
 40
0.750075
 41
0.750075
  0
VERTEX
  8
0
 10
4.1174
 20
4.52789
 30
0.0
 40
0.0104177
 41
0.0104177
  0
VERTEX
  8
0
 10
4.11887
 20
4.52789
 30
0.0
 40
0.0104177
 41
0.0104177
  0
VERTEX
  8
0
 10
4.12332
 20
4.52349
 30
0.0
 40
0.0104177
 41
0.0104177
  0
VERTEX
  8
0
 10
4.12332
 20
4.52197
 30
0.0
 40
0.0104177
 41
0.0104177
  0
VERTEX
  8
0
 10
4.12332
 20
4.52061
 30
0.0
 40
0.0104177
 41
0.0104177
  0
VERTEX
  8
0
 10
4.11963
 20
4.51654
 30
0.0
 40
0.0104177
 41
0.0104177
  0
VERTEX
  8
0
 10
4.11415
 20
4.51687
 30
0.0
 40
0.0104177
 41
0.0104177
  0
VERTEX
  8
0
 10
4.11322
 20
4.51779
 30
0.0
 40
0.0104177
 41
0.0104177
  0
VERTEX
  8
0
 10
4.11231
 20
4.51878
 30
0.0
 40
0.0104177
 41
0.0104177
  0
VERTEX
  8
0
 10
4.11193
 20
4.52425
 30
0.0
 40
0.0104177
 41
0.0104177
  0
VERTEX
  8
0
 10
4.116
 20
4.52789
 30
0.0
 40
0.0104177
 41
0.0104177
  0
VERTEX
  8
0
 10
4.1174
 20
4.52789
 30
0.0
 40
0.0104177
 41
0.0104177
  0
SEQEND
 8
0
  0
TEXT
  8
0
 62
     0
 10
6.34633
 20
5.07374
 30
0
 40
0.166667
  1
LA
 50
0
  7
ArialMT
  0
TEXT
  8
0
 62
     0
 10
6.538
 20
5.07374
 30
0
 40
0.166667
  1
T
 50
0
  7
ArialMT
  0
TEXT
  8
0
 62
     0
 10
6.63711
 20
5.07374
 30
0
 40
0.166667
  1
O 1
 50
0
  7
ArialMT
  0
TEXT
  8
0
 62
     0
 10
6.89333
 20
5.07374
 30
0
 40
0.166667
  1
1.50AP
 50
0
  7
ArialMT
  0
TEXT
  8
0
 62
     0
 10
7.43776
 20
5.07374
 30
0
 40
0.166667
  1
 1LEM
 50
0
  7
ArialMT
  0
TEXT
  8
0
 62
     0
 10
7.91988
 20
5.07374
 30
0
 40
0.166667
  1
AITRE
 50
0
  7
ArialMT
  0
POLYLINE
  8
0
 62
     0
 66
     1
 10
0
 20
0
 30
0.0
 70
     1
 40
0.637575
 41
0.637575
  0
VERTEX
  8
0
 10
4.13667
 20
1.80539
 30
0.0
 40
0.00885521
 41
0.00885521
  0
VERTEX
  8
0
 10
4.16276
 20
1.80539
 30
0.0
 40
0.00885521
 41
0.00885521
  0
VERTEX
  8
0
 10
4.16276
 20
1.2474
 30
0.0
 40
0.00885521
 41
0.00885521
  0
VERTEX
  8
0
 10
4.13667
 20
1.2474
 30
0.0
 40
0.00885521
 41
0.00885521
  0
VERTEX
  8
0
 10
4.13667
 20
1.80539
 30
0.0
 40
0.00885521
 41
0.00885521
  0
SEQEND
 8
0
  0
POLYLINE
  8
0
 62
     251
 66
     1
 10
0
 20
0
 30
0.0
 40
0.750075
 41
0.750075
  0
VERTEX
  8
0
 10
7.51699
 20
2.7455
 30
0.0
 40
0.0104177
 41
0.0104177
  0
VERTEX
  8
0
 10
7.84169
 20
2.70031
 30
0.0
 40
0.0104177
 41
0.0104177
  0
SEQEND
 8
0
  0
POLYLINE
  8
0
 62
     251
 66
     1
 10
0
 20
0
 30
0.0
 40
0.750075
 41
0.750075
  0
VERTEX
  8
0
 10
7.86165
 20
2.68799
 30
0.0
 40
0.0104177
 41
0.0104177
  0
VERTEX
  8
0
 10
7.86046
 20
2.68961
 30
0.0
 40
0.0104177
 41
0.0104177
  0
VERTEX
  8
0
 10
7.84375
 20
2.70003
 30
0.0
 40
0.0104177
 41
0.0104177
  0
VERTEX
  8
0
 10
7.84169
 20
2.70031
 30
0.0
 40
0.0104177
 41
0.0104177
  0
SEQEND
 8
0
  0
POLYLINE
  8
0
 62
     251
 66
     1
 10
0
 20
0
 30
0.0
 40
0.750075
 41
0.750075
  0
VERTEX
  8
0
 10
7.86638
 20
2.6651
 30
0.0
 40
0.0104177
 41
0.0104177
  0
VERTEX
  8
0
 10
7.86681
 20
2.66699
 30
0.0
 40
0.0104177
 41
0.0104177
  0
VERTEX
  8
0
 10
7.86279
 20
2.68625
 30
0.0
 40
0.0104177
 41
0.0104177
  0
VERTEX
  8
0
 10
7.86165
 20
2.68799
 30
0.0
 40
0.0104177
 41
0.0104177
  0
SEQEND
 8
0
  0
POLYLINE
  8
0
 62
     251
 66
     1
 10
0
 20
0
 30
0.0
 40
0.750075
 41
0.750075
  0
VERTEX
  8
0
 10
7.86638
 20
2.6651
 30
0.0
 40
0.0104177
 41
0.0104177
  0
VERTEX
  8
0
 10
7.82764
 20
2.48654
 30
0.0
 40
0.0104177
 41
0.0104177
  0
SEQEND
 8
0
  0
POLYLINE
  8
0
 62
     251
 66
     1
 10
0
 20
0
 30
0.0
 40
0.750075
 41
0.750075
  0
VERTEX
  8
0
 10
7.82232
 20
2.47424
 30
0.0
 40
0.0104177
 41
0.0104177
  0
VERTEX
  8
0
 10
7.82286
 20
2.47515
 30
0.0
 40
0.0104177
 41
0.0104177
  0
VERTEX
  8
0
 10
7.82747
 20
2.4854
 30
0.0
 40
0.0104177
 41
0.0104177
  0
VERTEX
  8
0
 10
7.82764
 20
2.48654
 30
0.0
 40
0.0104177
 41
0.0104177
  0
SEQEND
 8
0
  0
POLYLINE
  8
0
 62
     251
 66
     1
 10
0
 20
0
 30
0.0
 40
0.750075
 41
0.750075
  0
VERTEX
  8
0
 10
7.82232
 20
2.47424
 30
0.0
 40
0.0104177
 41
0.0104177
  0
VERTEX
  8
0
 10
7.73953
 20
2.37088
 30
0.0
 40
0.0104177
 41
0.0104177
  0
SEQEND
 8
0
  0
POLYLINE
  8
0
 62
     251
 66
     1
 10
0
 20
0
 30
0.0
 40
0.750075
 41
0.750075
  0
VERTEX
  8
0
 10
7.71664
 20
2.35975
 30
0.0
 40
0.0104177
 41
0.0104177
  0
VERTEX
  8
0
 10
7.72233
 20
2.35975
 30
0.0
 40
0.0104177
 41
0.0104177
  0
VERTEX
  8
0
 10
7.73817
 20
2.36914
 30
0.0
 40
0.0104177
 41
0.0104177
  0
VERTEX
  8
0
 10
7.73953
 20
2.37088
 30
0.0
 40
0.0104177
 41
0.0104177
  0
SEQEND
 8
0
  0
POLYLINE
  8
0
 62
     251
 66
     1
 10
0
 20
0
 30
0.0
 40
0.750075
 41
0.750075
  0
VERTEX
  8
0
 10
7.71664
 20
2.35975
 30
0.0
 40
0.0104177
 41
0.0104177
  0
VERTEX
  8
0
 10
6.27154
 20
2.35975
 30
0.0
 40
0.0104177
 41
0.0104177
  0
SEQEND
 8
0
  0
POLYLINE
  8
0
 62
     251
 66
     1
 10
0
 20
0
 30
0.0
 40
0.750075
 41
0.750075
  0
VERTEX
  8
0
 10
6.24864
 20
2.37088
 30
0.0
 40
0.0104177
 41
0.0104177
  0
VERTEX
  8
0
 10
6.24994
 20
2.36914
 30
0.0
 40
0.0104177
 41
0.0104177
  0
VERTEX
  8
0
 10
6.26611
 20
2.35975
 30
0.0
 40
0.0104177
 41
0.0104177
  0
VERTEX
  8
0
 10
6.27154
 20
2.35975
 30
0.0
 40
0.0104177
 41
0.0104177
  0
SEQEND
 8
0
  0
POLYLINE
  8
0
 62
     251
 66
     1
 10
0
 20
0
 30
0.0
 40
0.750075
 41
0.750075
  0
VERTEX
  8
0
 10
6.24864
 20
2.37088
 30
0.0
 40
0.0104177
 41
0.0104177
  0
VERTEX
  8
0
 10
6.16585
 20
2.47424
 30
0.0
 40
0.0104177
 41
0.0104177
  0
SEQEND
 8
0
  0
POLYLINE
  8
0
 62
     251
 66
     1
 10
0
 20
0
 30
0.0
 40
0.750075
 41
0.750075
  0
VERTEX
  8
0
 10
6.1606
 20
2.48654
 30
0.0
 40
0.0104177
 41
0.0104177
  0
VERTEX
  8
0
 10
6.16069
 20
2.4854
 30
0.0
 40
0.0104177
 41
0.0104177
  0
VERTEX
  8
0
 10
6.16525
 20
2.47515
 30
0.0
 40
0.0104177
 41
0.0104177
  0
VERTEX
  8
0
 10
6.16585
 20
2.47424
 30
0.0
 40
0.0104177
 41
0.0104177
  0
SEQEND
 8
0
  0
POLYLINE
  8
0
 62
     251
 66
     1
 10
0
 20
0
 30
0.0
 40
0.750075
 41
0.750075
  0
VERTEX
  8
0
 10
6.1606
 20
2.48654
 30
0.0
 40
0.0104177
 41
0.0104177
  0
VERTEX
  8
0
 10
6.12181
 20
2.6651
 30
0.0
 40
0.0104177
 41
0.0104177
  0
SEQEND
 8
0
  0
POLYLINE
  8
0
 62
     251
 66
     1
 10
0
 20
0
 30
0.0
 40
0.750075
 41
0.750075
  0
VERTEX
  8
0
 10
6.12651
 20
2.68799
 30
0.0
 40
0.0104177
 41
0.0104177
  0
VERTEX
  8
0
 10
6.12532
 20
2.68642
 30
0.0
 40
0.0104177
 41
0.0104177
  0
VERTEX
  8
0
 10
6.12136
 20
2.66699
 30
0.0
 40
0.0104177
 41
0.0104177
  0
VERTEX
  8
0
 10
6.12181
 20
2.6651
 30
0.0
 40
0.0104177
 41
0.0104177
  0
SEQEND
 8
0
  0
POLYLINE
  8
0
 62
     251
 66
     1
 10
0
 20
0
 30
0.0
 40
0.750075
 41
0.750075
  0
VERTEX
  8
0
 10
6.14649
 20
2.70031
 30
0.0
 40
0.0104177
 41
0.0104177
  0
VERTEX
  8
0
 10
6.14442
 20
2.70003
 30
0.0
 40
0.0104177
 41
0.0104177
  0
VERTEX
  8
0
 10
6.12765
 20
2.68961
 30
0.0
 40
0.0104177
 41
0.0104177
  0
VERTEX
  8
0
 10
6.12651
 20
2.68799
 30
0.0
 40
0.0104177
 41
0.0104177
  0
SEQEND
 8
0
  0
POLYLINE
  8
0
 62
     251
 66
     1
 10
0
 20
0
 30
0.0
 40
0.750075
 41
0.750075
  0
VERTEX
  8
0
 10
6.14649
 20
2.70031
 30
0.0
 40
0.0104177
 41
0.0104177
  0
VERTEX
  8
0
 10
6.47119
 20
2.7455
 30
0.0
 40
0.0104177
 41
0.0104177
  0
SEQEND
 8
0
  0
POLYLINE
  8
0
 62
     251
 66
     1
 10
0
 20
0
 30
0.0
 40
0.750075
 41
0.750075
  0
VERTEX
  8
0
 10
6.00732
 20
2.77957
 30
0.0
 40
0.0104177
 41
0.0104177
  0
VERTEX
  8
0
 10
6.08014
 20
2.44135
 30
0.0
 40
0.0104177
 41
0.0104177
  0
SEQEND
 8
0
  0
POLYLINE
  8
0
 62
     251
 66
     1
 10
0
 20
0
 30
0.0
 40
0.750075
 41
0.750075
  0
VERTEX
  8
0
 10
6.08014
 20
2.44135
 30
0.0
 40
0.0104177
 41
0.0104177
  0
VERTEX
  8
0
 10
6.24278
 20
2.23643
 30
0.0
 40
0.0104177
 41
0.0104177
  0
SEQEND
 8
0
  0
POLYLINE
  8
0
 62
     251
 66
     1
 10
0
 20
0
 30
0.0
 40
0.750075
 41
0.750075
  0
VERTEX
  8
0
 10
6.24278
 20
2.23643
 30
0.0
 40
0.0104177
 41
0.0104177
  0
VERTEX
  8
0
 10
6.48292
 20
2.14774
 30
0.0
 40
0.0104177
 41
0.0104177
  0
SEQEND
 8
0
  0
POLYLINE
  8
0
 62
     251
 66
     1
 10
0
 20
0
 30
0.0
 40
0.750075
 41
0.750075
  0
VERTEX
  8
0
 10
6.48292
 20
2.14774
 30
0.0
 40
0.0104177
 41
0.0104177
  0
VERTEX
  8
0
 10
6.77007
 20
2.13189
 30
0.0
 40
0.0104177
 41
0.0104177
  0
SEQEND
 8
0
  0
POLYLINE
  8
0
 62
     251
 66
     1
 10
0
 20
0
 30
0.0
 40
0.750075
 41
0.750075
  0
VERTEX
  8
0
 10
6.77007
 20
2.13189
 30
0.0
 40
0.0104177
 41
0.0104177
  0
VERTEX
  8
0
 10
7.2181
 20
2.13189
 30
0.0
 40
0.0104177
 41
0.0104177
  0
SEQEND
 8
0
  0
POLYLINE
  8
0
 62
     251
 66
     1
 10
0
 20
0
 30
0.0
 40
0.750075
 41
0.750075
  0
VERTEX
  8
0
 10
7.2181
 20
2.13189
 30
0.0
 40
0.0104177
 41
0.0104177
  0
VERTEX
  8
0
 10
7.50526
 20
2.14774
 30
0.0
 40
0.0104177
 41
0.0104177
  0
SEQEND
 8
0
  0
POLYLINE
  8
0
 62
     251
 66
     1
 10
0
 20
0
 30
0.0
 40
0.750075
 41
0.750075
  0
VERTEX
  8
0
 10
7.50526
 20
2.14774
 30
0.0
 40
0.0104177
 41
0.0104177
  0
VERTEX
  8
0
 10
7.74539
 20
2.23643
 30
0.0
 40
0.0104177
 41
0.0104177
  0
SEQEND
 8
0
  0
POLYLINE
  8
0
 62
     251
 66
     1
 10
0
 20
0
 30
0.0
 40
0.750075
 41
0.750075
  0
VERTEX
  8
0
 10
7.74539
 20
2.23643
 30
0.0
 40
0.0104177
 41
0.0104177
  0
VERTEX
  8
0
 10
7.90804
 20
2.44135
 30
0.0
 40
0.0104177
 41
0.0104177
  0
SEQEND
 8
0
  0
POLYLINE
  8
0
 62
     251
 66
     1
 10
0
 20
0
 30
0.0
 40
0.750075
 41
0.750075
  0
VERTEX
  8
0
 10
7.90804
 20
2.44135
 30
0.0
 40
0.0104177
 41
0.0104177
  0
VERTEX
  8
0
 10
7.98085
 20
2.77957
 30
0.0
 40
0.0104177
 41
0.0104177
  0
SEQEND
 8
0
  0
POLYLINE
  8
0
 62
     251
 66
     1
 10
0
 20
0
 30
0.0
 40
0.750075
 41
0.750075
  0
VERTEX
  8
0
 10
7.98085
 20
2.77957
 30
0.0
 40
0.0104177
 41
0.0104177
  0
VERTEX
  8
0
 10
7.94308
 20
2.78603
 30
0.0
 40
0.0104177
 41
0.0104177
  0
VERTEX
  8
0
 10
7.56337
 20
2.8355
 30
0.0
 40
0.0104177
 41
0.0104177
  0
VERTEX
  8
0
 10
7.52522
 20
2.83886
 30
0.0
 40
0.0104177
 41
0.0104177
  0
SEQEND
 8
0
  0
POLYLINE
  8
0
 62
     251
 66
     1
 10
0
 20
0
 30
0.0
 40
0.750075
 41
0.750075
  0
VERTEX
  8
0
 10
7.52522
 20
2.83886
 30
0.0
 40
0.0104177
 41
0.0104177
  0
VERTEX
  8
0
 10
7.51699
 20
2.7455
 30
0.0
 40
0.0104177
 41
0.0104177
  0
SEQEND
 8
0
  0
POLYLINE
  8
0
 62
     251
 66
     1
 10
0
 20
0
 30
0.0
 40
0.750075
 41
0.750075
  0
VERTEX
  8
0
 10
6.47119
 20
2.7455
 30
0.0
 40
0.0104177
 41
0.0104177
  0
VERTEX
  8
0
 10
6.5351
 20
2.72922
 30
0.0
 40
0.0104177
 41
0.0104177
  0
VERTEX
  8
0
 10
6.73101
 20
2.69635
 30
0.0
 40
0.0104177
 41
0.0104177
  0
VERTEX
  8
0
 10
6.99408
 20
2.6799
 30
0.0
 40
0.0104177
 41
0.0104177
  0
VERTEX
  8
0
 10
7.25711
 20
2.69635
 30
0.0
 40
0.0104177
 41
0.0104177
  0
VERTEX
  8
0
 10
7.45301
 20
2.72922
 30
0.0
 40
0.0104177
 41
0.0104177
  0
VERTEX
  8
0
 10
7.51699
 20
2.7455
 30
0.0
 40
0.0104177
 41
0.0104177
  0
SEQEND
 8
0
  0
POLYLINE
  8
0
 62
     251
 66
     1
 10
0
 20
0
 30
0.0
 40
0.750075
 41
0.750075
  0
VERTEX
  8
0
 10
6.47119
 20
2.7455
 30
0.0
 40
0.0104177
 41
0.0104177
  0
VERTEX
  8
0
 10
6.46294
 20
2.83886
 30
0.0
 40
0.0104177
 41
0.0104177
  0
SEQEND
 8
0
  0
POLYLINE
  8
0
 62
     251
 66
     1
 10
0
 20
0
 30
0.0
 40
0.750075
 41
0.750075
  0
VERTEX
  8
0
 10
6.46294
 20
2.83886
 30
0.0
 40
0.0104177
 41
0.0104177
  0
VERTEX
  8
0
 10
6.42475
 20
2.8355
 30
0.0
 40
0.0104177
 41
0.0104177
  0
VERTEX
  8
0
 10
6.04503
 20
2.78603
 30
0.0
 40
0.0104177
 41
0.0104177
  0
VERTEX
  8
0
 10
6.00732
 20
2.77957
 30
0.0
 40
0.0104177
 41
0.0104177
  0
SEQEND
 8
0
  0
POLYLINE
  8
0
 62
     251
 66
     1
 10
0
 20
0
 30
0.0
 40
0.750075
 41
0.750075
  0
VERTEX
  8
0
 10
6.74989
 20
3.2054
 30
0.0
 40
0.0104177
 41
0.0104177
  0
VERTEX
  8
0
 10
6.70904
 20
3.20378
 30
0.0
 40
0.0104177
 41
0.0104177
  0
VERTEX
  8
0
 10
6.30344
 20
3.16928
 30
0.0
 40
0.0104177
 41
0.0104177
  0
VERTEX
  8
0
 10
6.26307
 20
3.16411
 30
0.0
 40
0.0104177
 41
0.0104177
  0
SEQEND
 8
0
  0
POLYLINE
  8
0
 62
     251
 66
     1
 10
0
 20
0
 30
0.0
 40
0.750075
 41
0.750075
  0
VERTEX
  8
0
 10
6.26307
 20
3.16411
 30
0.0
 40
0.0104177
 41
0.0104177
  0
VERTEX
  8
0
 10
6.11219
 20
2.82921
 30
0.0
 40
0.0104177
 41
0.0104177
  0
SEQEND
 8
0
  0
POLYLINE
  8
0
 62
     251
 66
     1
 10
0
 20
0
 30
0.0
 40
0.750075
 41
0.750075
  0
VERTEX
  8
0
 10
6.11219
 20
2.82921
 30
0.0
 40
0.0104177
 41
0.0104177
  0
VERTEX
  8
0
 10
6.09224
 20
2.82617
 30
0.0
 40
0.0104177
 41
0.0104177
  0
VERTEX
  8
0
 10
5.89399
 20
2.79124
 30
0.0
 40
0.0104177
 41
0.0104177
  0
VERTEX
  8
0
 10
5.87435
 20
2.78728
 30
0.0
 40
0.0104177
 41
0.0104177
  0
SEQEND
 8
0
  0
POLYLINE
  8
0
 62
     251
 66
     1
 10
0
 20
0
 30
0.0
 40
0.750075
 41
0.750075
  0
VERTEX
  8
0
 10
5.87435
 20
2.78728
 30
0.0
 40
0.0104177
 41
0.0104177
  0
VERTEX
  8
0
 10
5.93425
 20
2.34603
 30
0.0
 40
0.0104177
 41
0.0104177
  0
SEQEND
 8
0
  0
POLYLINE
  8
0
 62
     251
 66
     1
 10
0
 20
0
 30
0.0
 40
0.750075
 41
0.750075
  0
VERTEX
  8
0
 10
5.93425
 20
2.34603
 30
0.0
 40
0.0104177
 41
0.0104177
  0
VERTEX
  8
0
 10
6.10747
 20
2.06706
 30
0.0
 40
0.0104177
 41
0.0104177
  0
SEQEND
 8
0
  0
POLYLINE
  8
0
 62
     251
 66
     1
 10
0
 20
0
 30
0.0
 40
0.750075
 41
0.750075
  0
VERTEX
  8
0
 10
6.38226
 20
1.87196
 30
0.0
 40
0.0104177
 41
0.0104177
  0
VERTEX
  8
0
 10
6.68001
 20
1.78928
 30
0.0
 40
0.0104177
 41
0.0104177
  0
SEQEND
 8
0
  0
POLYLINE
  8
0
 62
     251
 66
     1
 10
0
 20
0
 30
0.0
 40
0.750075
 41
0.750075
  0
VERTEX
  8
0
 10
6.68001
 20
1.78928
 30
0.0
 40
0.0104177
 41
0.0104177
  0
VERTEX
  8
0
 10
7.2889
 20
1.78928
 30
0.0
 40
0.0104177
 41
0.0104177
  0
SEQEND
 8
0
  0
POLYLINE
  8
0
 62
     251
 66
     1
 10
0
 20
0
 30
0.0
 40
0.750075
 41
0.750075
  0
VERTEX
  8
0
 10
7.2889
 20
1.78928
 30
0.0
 40
0.0104177
 41
0.0104177
  0
VERTEX
  8
0
 10
7.58664
 20
1.87196
 30
0.0
 40
0.0104177
 41
0.0104177
  0
SEQEND
 8
0
  0
POLYLINE
  8
0
 62
     251
 66
     1
 10
0
 20
0
 30
0.0
 40
0.750075
 41
0.750075
  0
VERTEX
  8
0
 10
7.6001
 20
2.96853
 30
0.0
 40
0.0104177
 41
0.0104177
  0
VERTEX
  8
0
 10
7.54883
 20
2.97049
 30
0.0
 40
0.0104177
 41
0.0104177
  0
VERTEX
  8
0
 10
7.12532
 20
2.97971
 30
0.0
 40
0.0104177
 41
0.0104177
  0
VERTEX
  8
0
 10
6.98415
 20
2.97971
 30
0.0
 40
0.0104177
 41
0.0104177
  0
SEQEND
 8
0
  0
POLYLINE
  8
0
 62
     251
 66
     1
 10
0
 20
0
 30
0.0
 40
0.750075
 41
0.750075
  0
VERTEX
  8
0
 10
6.98475
 20
2.97971
 30
0.0
 40
0.0104177
 41
0.0104177
  0
VERTEX
  8
0
 10
6.83074
 20
2.97971
 30
0.0
 40
0.0104177
 41
0.0104177
  0
VERTEX
  8
0
 10
6.41997
 20
2.97032
 30
0.0
 40
0.0104177
 41
0.0104177
  0
VERTEX
  8
0
 10
6.36876
 20
2.96853
 30
0.0
 40
0.0104177
 41
0.0104177
  0
SEQEND
 8
0
  0
POLYLINE
  8
0
 62
     251
 66
     1
 10
0
 20
0
 30
0.0
 40
0.750075
 41
0.750075
  0
VERTEX
  8
0
 10
6.36876
 20
2.96506
 30
0.0
 40
0.0104177
 41
0.0104177
  0
VERTEX
  8
0
 10
6.30067
 20
2.85406
 30
0.0
 40
0.0104177
 41
0.0104177
  0
SEQEND
 8
0
  0
POLYLINE
  8
0
 62
     251
 66
     1
 10
0
 20
0
 30
0.0
 40
0.750075
 41
0.750075
  0
VERTEX
  8
0
 10
6.30067
 20
2.85406
 30
0.0
 40
0.0104177
 41
0.0104177
  0
VERTEX
  8
0
 10
6.27979
 20
2.85157
 30
0.0
 40
0.0104177
 41
0.0104177
  0
VERTEX
  8
0
 10
6.07238
 20
2.82286
 30
0.0
 40
0.0104177
 41
0.0104177
  0
VERTEX
  8
0
 10
6.05171
 20
2.81944
 30
0.0
 40
0.0104177
 41
0.0104177
  0
SEQEND
 8
0
  0
POLYLINE
  8
0
 62
     251
 66
     1
 10
0
 20
0
 30
0.0
 40
0.750075
 41
0.750075
  0
VERTEX
  8
0
 10
6.05171
 20
2.81944
 30
0.0
 40
0.0104177
 41
0.0104177
  0
VERTEX
  8
0
 10
6.1116
 20
2.38786
 30
0.0
 40
0.0104177
 41
0.0104177
  0
SEQEND
 8
0
  0
POLYLINE
  8
0
 62
     251
 66
     1
 10
0
 20
0
 30
0.0
 40
0.750075
 41
0.750075
  0
VERTEX
  8
0
 10
6.1116
 20
2.38786
 30
0.0
 40
0.0104177
 41
0.0104177
  0
VERTEX
  8
0
 10
6.2584
 20
2.1001
 30
0.0
 40
0.0104177
 41
0.0104177
  0
SEQEND
 8
0
  0
POLYLINE
  8
0
 62
     251
 66
     1
 10
0
 20
0
 30
0.0
 40
0.750075
 41
0.750075
  0
VERTEX
  8
0
 10
6.2584
 20
2.1001
 30
0.0
 40
0.0104177
 41
0.0104177
  0
VERTEX
  8
0
 10
6.48975
 20
1.89931
 30
0.0
 40
0.0104177
 41
0.0104177
  0
SEQEND
 8
0
  0
POLYLINE
  8
0
 62
     251
 66
     1
 10
0
 20
0
 30
0.0
 40
0.750075
 41
0.750075
  0
VERTEX
  8
0
 10
6.48975
 20
1.89931
 30
0.0
 40
0.0104177
 41
0.0104177
  0
VERTEX
  8
0
 10
6.73872
 20
1.81119
 30
0.0
 40
0.0104177
 41
0.0104177
  0
SEQEND
 8
0
  0
POLYLINE
  8
0
 62
     251
 66
     1
 10
0
 20
0
 30
0.0
 40
0.750075
 41
0.750075
  0
VERTEX
  8
0
 10
6.73872
 20
1.81119
 30
0.0
 40
0.0104177
 41
0.0104177
  0
VERTEX
  8
0
 10
7.23019
 20
1.81119
 30
0.0
 40
0.0104177
 41
0.0104177
  0
SEQEND
 8
0
  0
POLYLINE
  8
0
 62
     251
 66
     1
 10
0
 20
0
 30
0.0
 40
0.750075
 41
0.750075
  0
VERTEX
  8
0
 10
7.23019
 20
1.81119
 30
0.0
 40
0.0104177
 41
0.0104177
  0
VERTEX
  8
0
 10
7.47917
 20
1.89931
 30
0.0
 40
0.0104177
 41
0.0104177
  0
SEQEND
 8
0
  0
POLYLINE
  8
0
 62
     251
 66
     1
 10
0
 20
0
 30
0.0
 40
0.750075
 41
0.750075
  0
VERTEX
  8
0
 10
7.47917
 20
1.89931
 30
0.0
 40
0.0104177
 41
0.0104177
  0
VERTEX
  8
0
 10
7.7105
 20
2.1001
 30
0.0
 40
0.0104177
 41
0.0104177
  0
SEQEND
 8
0
  0
POLYLINE
  8
0
 62
     251
 66
     1
 10
0
 20
0
 30
0.0
 40
0.750075
 41
0.750075
  0
VERTEX
  8
0
 10
7.7105
 20
2.1001
 30
0.0
 40
0.0104177
 41
0.0104177
  0
VERTEX
  8
0
 10
7.85732
 20
2.38786
 30
0.0
 40
0.0104177
 41
0.0104177
  0
SEQEND
 8
0
  0
POLYLINE
  8
0
 62
     251
 66
     1
 10
0
 20
0
 30
0.0
 40
0.750075
 41
0.750075
  0
VERTEX
  8
0
 10
7.85732
 20
2.38786
 30
0.0
 40
0.0104177
 41
0.0104177
  0
VERTEX
  8
0
 10
7.91721
 20
2.81944
 30
0.0
 40
0.0104177
 41
0.0104177
  0
SEQEND
 8
0
  0
POLYLINE
  8
0
 62
     251
 66
     1
 10
0
 20
0
 30
0.0
 40
0.750075
 41
0.750075
  0
VERTEX
  8
0
 10
7.91721
 20
2.81944
 30
0.0
 40
0.0104177
 41
0.0104177
  0
VERTEX
  8
0
 10
7.89649
 20
2.82286
 30
0.0
 40
0.0104177
 41
0.0104177
  0
VERTEX
  8
0
 10
7.68907
 20
2.85157
 30
0.0
 40
0.0104177
 41
0.0104177
  0
VERTEX
  8
0
 10
7.66824
 20
2.85406
 30
0.0
 40
0.0104177
 41
0.0104177
  0
SEQEND
 8
0
  0
POLYLINE
  8
0
 62
     251
 66
     1
 10
0
 20
0
 30
0.0
 40
0.750075
 41
0.750075
  0
VERTEX
  8
0
 10
7.66276
 20
2.85406
 30
0.0
 40
0.0104177
 41
0.0104177
  0
VERTEX
  8
0
 10
7.61692
 20
2.94271
 30
0.0
 40
0.0104177
 41
0.0104177
  0
SEQEND
 8
0
  0
POLYLINE
  8
0
 62
     251
 66
     1
 10
0
 20
0
 30
0.0
 40
0.750075
 41
0.750075
  0
VERTEX
  8
0
 10
6.34879
 20
2.92671
 30
0.0
 40
0.0104177
 41
0.0104177
  0
VERTEX
  8
0
 10
6.36876
 20
2.96838
 30
0.0
 40
0.0104177
 41
0.0104177
  0
SEQEND
 8
0
  0
POLYLINE
  8
0
 62
     251
 66
     1
 10
0
 20
0
 30
0.0
 40
0.750075
 41
0.750075
  0
VERTEX
  8
0
 10
7.6001
 20
2.96838
 30
0.0
 40
0.0104177
 41
0.0104177
  0
VERTEX
  8
0
 10
7.62007
 20
2.92671
 30
0.0
 40
0.0104177
 41
0.0104177
  0
SEQEND
 8
0
  0
POLYLINE
  8
0
 62
     251
 66
     1
 10
0
 20
0
 30
0.0
 40
0.750075
 41
0.750075
  0
VERTEX
  8
0
 10
6.10747
 20
2.06706
 30
0.0
 40
0.0104177
 41
0.0104177
  0
VERTEX
  8
0
 10
6.38226
 20
1.87196
 30
0.0
 40
0.0104177
 41
0.0104177
  0
SEQEND
 8
0
  0
POLYLINE
  8
0
 62
     251
 66
     1
 10
0
 20
0
 30
0.0
 40
0.750075
 41
0.750075
  0
VERTEX
  8
0
 10
7.58664
 20
1.87196
 30
0.0
 40
0.0104177
 41
0.0104177
  0
VERTEX
  8
0
 10
7.86143
 20
2.06706
 30
0.0
 40
0.0104177
 41
0.0104177
  0
SEQEND
 8
0
  0
POLYLINE
  8
0
 62
     251
 66
     1
 10
0
 20
0
 30
0.0
 40
0.750075
 41
0.750075
  0
VERTEX
  8
0
 10
7.86143
 20
2.06706
 30
0.0
 40
0.0104177
 41
0.0104177
  0
VERTEX
  8
0
 10
8.03467
 20
2.34603
 30
0.0
 40
0.0104177
 41
0.0104177
  0
SEQEND
 8
0
  0
POLYLINE
  8
0
 62
     251
 66
     1
 10
0
 20
0
 30
0.0
 40
0.750075
 41
0.750075
  0
VERTEX
  8
0
 10
8.03467
 20
2.34603
 30
0.0
 40
0.0104177
 41
0.0104177
  0
VERTEX
  8
0
 10
8.09457
 20
2.78728
 30
0.0
 40
0.0104177
 41
0.0104177
  0
SEQEND
 8
0
  0
POLYLINE
  8
0
 62
     251
 66
     1
 10
0
 20
0
 30
0.0
 40
0.750075
 41
0.750075
  0
VERTEX
  8
0
 10
8.09457
 20
2.78728
 30
0.0
 40
0.0104177
 41
0.0104177
  0
VERTEX
  8
0
 10
8.07487
 20
2.79124
 30
0.0
 40
0.0104177
 41
0.0104177
  0
VERTEX
  8
0
 10
7.87668
 20
2.82617
 30
0.0
 40
0.0104177
 41
0.0104177
  0
VERTEX
  8
0
 10
7.85672
 20
2.82921
 30
0.0
 40
0.0104177
 41
0.0104177
  0
SEQEND
 8
0
  0
POLYLINE
  8
0
 62
     251
 66
     1
 10
0
 20
0
 30
0.0
 40
0.750075
 41
0.750075
  0
VERTEX
  8
0
 10
7.85672
 20
2.82921
 30
0.0
 40
0.0104177
 41
0.0104177
  0
VERTEX
  8
0
 10
7.70583
 20
3.16411
 30
0.0
 40
0.0104177
 41
0.0104177
  0
SEQEND
 8
0
  0
POLYLINE
  8
0
 62
     251
 66
     1
 10
0
 20
0
 30
0.0
 40
0.750075
 41
0.750075
  0
VERTEX
  8
0
 10
7.70583
 20
3.16411
 30
0.0
 40
0.0104177
 41
0.0104177
  0
VERTEX
  8
0
 10
7.66542
 20
3.16928
 30
0.0
 40
0.0104177
 41
0.0104177
  0
VERTEX
  8
0
 10
7.25982
 20
3.20378
 30
0.0
 40
0.0104177
 41
0.0104177
  0
VERTEX
  8
0
 10
7.21903
 20
3.2054
 30
0.0
 40
0.0104177
 41
0.0104177
  0
SEQEND
 8
0
  0
POLYLINE
  8
0
 62
     251
 66
     1
 10
0
 20
0
 30
0.0
 40
0.750075
 41
0.750075
  0
VERTEX
  8
0
 10
7.18967
 20
3.20665
 30
0.0
 40
0.0104177
 41
0.0104177
  0
VERTEX
  8
0
 10
7.1531
 20
3.20806
 30
0.0
 40
0.0104177
 41
0.0104177
  0
VERTEX
  8
0
 10
6.7864
 20
3.20692
 30
0.0
 40
0.0104177
 41
0.0104177
  0
VERTEX
  8
0
 10
6.74989
 20
3.2054
 30
0.0
 40
0.0104177
 41
0.0104177
  0
SEQEND
 8
0
  0
POLYLINE
  8
0
 62
     251
 66
     1
 10
0
 20
0
 30
0.0
 40
0.750075
 41
0.750075
  0
VERTEX
  8
0
 10
7.19026
 20
3.20665
 30
0.0
 40
0.0104177
 41
0.0104177
  0
VERTEX
  8
0
 10
7.21962
 20
3.2054
 30
0.0
 40
0.0104177
 41
0.0104177
  0
SEQEND
 8
0
  0
POLYLINE
  8
0
 62
     0
 66
     1
 10
0
 20
0
 30
0.0
 70
     1
 40
0.750075
 41
0.750075
  0
VERTEX
  8
0
 10
0.531685
 20
2.11882
 30
0.0
 40
0.0104177
 41
0.0104177
  0
VERTEX
  8
0
 10
0.795682
 20
2.07226
 30
0.0
 40
0.0104177
 41
0.0104177
  0
VERTEX
  8
0
 10
0.784017
 20
1.48731
 30
0.0
 40
0.0104177
 41
0.0104177
  0
VERTEX
  8
0
 10
0.584853
 20
1.46685
 30
0.0
 40
0.0104177
 41
0.0104177
  0
VERTEX
  8
0
 10
0.574382
 20
1.51594
 30
0.0
 40
0.0104177
 41
0.0104177
  0
VERTEX
  8
0
 10
0.543511
 20
1.78271
 30
0.0
 40
0.0104177
 41
0.0104177
  0
VERTEX
  8
0
 10
0.532335
 20
2.06299
 30
0.0
 40
0.0104177
 41
0.0104177
  0
VERTEX
  8
0
 10
0.531685
 20
2.11882
 30
0.0
 40
0.0104177
 41
0.0104177
  0
SEQEND
 8
0
  0
POLYLINE
  8
0
 62
     0
 66
     1
 10
0
 20
0
 30
0.0
 70
     1
 40
0.375
 41
0.375
  0
VERTEX
  8
0
 10
6.52165
 20
2.05854
 30
0.0
 40
0.00520833
 41
0.00520833
  0
VERTEX
  8
0
 10
6.55464
 20
2.08876
 30
0.0
 40
0.00520833
 41
0.00520833
  0
VERTEX
  8
0
 10
6.56922
 20
2.04574
 30
0.0
 40
0.00520833
 41
0.00520833
  0
VERTEX
  8
0
 10
6.40528
 20
1.47971
 30
0.0
 40
0.00520833
 41
0.00520833
  0
VERTEX
  8
0
 10
6.37853
 20
1.48688
 30
0.0
 40
0.00520833
 41
0.00520833
  0
VERTEX
  8
0
 10
6.52165
 20
2.05854
 30
0.0
 40
0.00520833
 41
0.00520833
  0
SEQEND
 8
0
  0
POLYLINE
  8
0
 62
     251
 66
     1
 10
0
 20
0
 30
0.0
 40
0.375
 41
0.375
  0
VERTEX
  8
0
 10
6.79796
 20
2.13331
 30
0.0
 40
0.00520833
 41
0.00520833
  0
VERTEX
  8
0
 10
7.24599
 20
2.13331
 30
0.0
 40
0.00520833
 41
0.00520833
  0
SEQEND
 8
0
  0
POLYLINE
  8
0
 62
     0
 66
     1
 10
0
 20
0
 30
0.0
 70
     1
 40
0.375
 41
0.375
  0
VERTEX
  8
0
 10
7.45324
 20
2.05599
 30
0.0
 40
0.00520833
 41
0.00520833
  0
VERTEX
  8
0
 10
7.46669
 20
2.09868
 30
0.0
 40
0.00520833
 41
0.00520833
  0
VERTEX
  8
0
 10
7.50082
 20
2.06874
 30
0.0
 40
0.00520833
 41
0.00520833
  0
VERTEX
  8
0
 10
7.6435
 20
1.49419
 30
0.0
 40
0.00520833
 41
0.00520833
  0
VERTEX
  8
0
 10
7.61762
 20
1.48529
 30
0.0
 40
0.00520833
 41
0.00520833
  0
VERTEX
  8
0
 10
7.45324
 20
2.05599
 30
0.0
 40
0.00520833
 41
0.00520833
  0
SEQEND
 8
0
  0
ENDSEC
  0
EOF
