0
SECTION
2
ENTITIES
0
LINE
  8
0
 10
       .0000000
 20
       .0000000
 11
       .1000000
 21
       .1089900
0
LINE
  8
0
 10
       .1000000
 20
       .1089900
 11
       .2000000
 21
       .7814600
0
LINE
  8
0
 10
       .2000000
 20
       .7814600
 11
       .3000000
 21
       .9528400
0
LINE
  8
0
 10
       .3000000
 20
       .9528400
 11
       .4000000
 21
      1.0960800
0
LINE
  8
0
 10
       .4000000
 20
      1.0960800
 11
       .5000000
 21
      1.2213100
0
LINE
  8
0
 10
       .5000000
 20
      1.2213100
 11
       .6000000
 21
      1.3337500
0
LINE
  8
0
 10
       .6000000
 20
      1.3337500
 11
       .7000000
 21
      1.4364800
0
LINE
  8
0
 10
       .7000000
 20
      1.4364800
 11
       .8000000
 21
      1.5315100
0
LINE
  8
0
 10
       .8000000
 20
      1.5315100
 11
       .9000000
 21
      1.6202500
0
LINE
  8
0
 10
       .9000000
 20
      1.6202500
 11
      1.0000000
 21
      1.7037100
0
LINE
  8
0
 10
      1.0000000
 20
      1.7037100
 11
      1.1000000
 21
      1.7826600
0
LINE
  8
0
 10
      1.1000000
 20
      1.7826600
 11
      1.2000000
 21
      1.8577000
0
LINE
  8
0
 10
      1.2000000
 20
      1.8577000
 11
      1.3000000
 21
      1.9293000
0
LINE
  8
0
 10
      1.3000000
 20
      1.9293000
 11
      1.4000000
 21
      1.9978500
0
LINE
  8
0
 10
      1.4000000
 20
      1.9978500
 11
      1.5000000
 21
      2.0636700
0
LINE
  8
0
 10
      1.5000000
 20
      2.0636700
 11
      1.6000000
 21
      2.1270200
0
LINE
  8
0
 10
      1.6000000
 20
      2.1270200
 11
      1.7000000
 21
      2.1881300
0
LINE
  8
0
 10
      1.7000000
 20
      2.1881300
 11
      1.8000000
 21
      2.2471800
0
LINE
  8
0
 10
      1.8000000
 20
      2.2471800
 11
      1.9000000
 21
      2.3043500
0
LINE
  8
0
 10
      1.9000000
 20
      2.3043500
 11
      2.0000000
 21
      2.3597800
0
LINE
  8
0
 10
      2.0000000
 20
      2.3597800
 11
      2.1000000
 21
      2.4135900
0
LINE
  8
0
 10
      2.1000000
 20
      2.4135900
 11
      2.2000000
 21
      2.4658900
0
LINE
  8
0
 10
      2.2000000
 20
      2.4658900
 11
      2.3000000
 21
      2.5167900
0
LINE
  8
0
 10
      2.3000000
 20
      2.5167900
 11
      2.4000000
 21
      2.5663800
0
LINE
  8
0
 10
      2.4000000
 20
      2.5663800
 11
      2.5000000
 21
      2.6147200
0
LINE
  8
0
 10
      2.5000000
 20
      2.6147200
 11
      2.6000000
 21
      2.6619000
0
LINE
  8
0
 10
      2.6000000
 20
      2.6619000
 11
      2.7000000
 21
      2.7079700
0
LINE
  8
0
 10
      2.7000000
 20
      2.7079700
 11
      2.8000000
 21
      2.7530000
0
LINE
  8
0
 10
      2.8000000
 20
      2.7530000
 11
      2.9000000
 21
      2.7970400
0
LINE
  8
0
 10
      2.9000000
 20
      2.7970400
 11
      3.0000000
 21
      2.8401400
0
LINE
  8
0
 10
      3.0000000
 20
      2.8401400
 11
      3.1000000
 21
      2.8823500
0
LINE
  8
0
 10
      3.1000000
 20
      2.8823500
 11
      3.2000000
 21
      2.9237000
0
LINE
  8
0
 10
      3.2000000
 20
      2.9237000
 11
      3.3000000
 21
      2.9642300
0
LINE
  8
0
 10
      3.3000000
 20
      2.9642300
 11
      3.4000000
 21
      3.0039700
0
LINE
  8
0
 10
      3.4000000
 20
      3.0039700
 11
      3.5000000
 21
      3.0429700
0
LINE
  8
0
 10
      3.5000000
 20
      3.0429700
 11
      3.6000000
 21
      3.0812500
0
LINE
  8
0
 10
      3.6000000
 20
      3.0812500
 11
      3.7000000
 21
      3.1188400
0
LINE
  8
0
 10
      3.7000000
 20
      3.1188400
 11
      3.8000000
 21
      3.1557700
0
LINE
  8
0
 10
      3.8000000
 20
      3.1557700
 11
      3.9000000
 21
      3.1920500
0
LINE
  8
0
 10
      3.9000000
 20
      3.1920500
 11
      4.0000000
 21
      3.2277200
0
LINE
  8
0
 10
      4.0000000
 20
      3.2277200
 11
      4.1000000
 21
      3.2628000
0
LINE
  8
0
 10
      4.1000000
 20
      3.2628000
 11
      4.2000000
 21
      3.2973000
0
LINE
  8
0
 10
      4.2000000
 20
      3.2973000
 11
      4.3000000
 21
      3.3312400
0
LINE
  8
0
 10
      4.3000000
 20
      3.3312400
 11
      4.4000000
 21
      3.3646400
0
LINE
  8
0
 10
      4.4000000
 20
      3.3646400
 11
      4.5000000
 21
      3.3975300
0
LINE
  8
0
 10
      4.5000000
 20
      3.3975300
 11
      4.6000000
 21
      3.4299100
0
LINE
  8
0
 10
      4.6000000
 20
      3.4299100
 11
      4.7000000
 21
      3.4618000
0
LINE
  8
0
 10
      4.7000000
 20
      3.4618000
 11
      4.8000000
 21
      3.4932200
0
LINE
  8
0
 10
      4.8000000
 20
      3.4932200
 11
      4.9000000
 21
      3.5241800
0
LINE
  8
0
 10
      4.9000000
 20
      3.5241800
 11
      5.0000000
 21
      3.5546900
0
LINE
  8
0
 10
      5.0000000
 20
      3.5546900
 11
      5.1000000
 21
      3.5847600
0
LINE
  8
0
 10
      5.1000000
 20
      3.5847600
 11
      5.2000000
 21
      3.6144100
0
LINE
  8
0
 10
      5.2000000
 20
      3.6144100
 11
      5.3000000
 21
      3.6436400
0
LINE
  8
0
 10
      5.3000000
 20
      3.6436400
 11
      5.4000000
 21
      3.6724800
0
LINE
  8
0
 10
      5.4000000
 20
      3.6724800
 11
      5.5000000
 21
      3.7009200
0
LINE
  8
0
 10
      5.5000000
 20
      3.7009200
 11
      5.6000000
 21
      3.7289800
0
LINE
  8
0
 10
      5.6000000
 20
      3.7289800
 11
      5.7000000
 21
      3.7566700
0
LINE
  8
0
 10
      5.7000000
 20
      3.7566700
 11
      5.8000000
 21
      3.7839900
0
LINE
  8
0
 10
      5.8000000
 20
      3.7839900
 11
      5.9000000
 21
      3.8109600
0
LINE
  8
0
 10
      5.9000000
 20
      3.8109600
 11
      6.0000000
 21
      3.8375800
0
LINE
  8
0
 10
      6.0000000
 20
      3.8375800
 11
      6.1000000
 21
      3.8638600
0
LINE
  8
0
 10
      6.1000000
 20
      3.8638600
 11
      6.2000000
 21
      3.8898100
0
LINE
  8
0
 10
      6.2000000
 20
      3.8898100
 11
      6.3000000
 21
      3.9154400
0
LINE
  8
0
 10
      6.3000000
 20
      3.9154400
 11
      6.4000000
 21
      3.9407500
0
LINE
  8
0
 10
      6.4000000
 20
      3.9407500
 11
      6.5000000
 21
      3.9657400
0
LINE
  8
0
 10
      6.5000000
 20
      3.9657400
 11
      6.6000000
 21
      3.9904300
0
LINE
  8
0
 10
      6.6000000
 20
      3.9904300
 11
      6.7000000
 21
      4.0148300
0
LINE
  8
0
 10
      6.7000000
 20
      4.0148300
 11
      6.8000000
 21
      4.0389300
0
LINE
  8
0
 10
      6.8000000
 20
      4.0389300
 11
      6.9000000
 21
      4.0627400
0
LINE
  8
0
 10
      6.9000000
 20
      4.0627400
 11
      7.0000000
 21
      4.0862800
0
LINE
  8
0
 10
      7.0000000
 20
      4.0862800
 11
      7.1000000
 21
      4.1095300
0
LINE
  8
0
 10
      7.1000000
 20
      4.1095300
 11
      7.2000000
 21
      4.1325200
0
LINE
  8
0
 10
      7.2000000
 20
      4.1325200
 11
      7.3000000
 21
      4.1552400
0
LINE
  8
0
 10
      7.3000000
 20
      4.1552400
 11
      7.4000000
 21
      4.1777000
0
LINE
  8
0
 10
      7.4000000
 20
      4.1777000
 11
      7.5000000
 21
      4.1999000
0
LINE
  8
0
 10
      7.5000000
 20
      4.1999000
 11
      7.6000000
 21
      4.2218600
0
LINE
  8
0
 10
      7.6000000
 20
      4.2218600
 11
      7.7000000
 21
      4.2435600
0
LINE
  8
0
 10
      7.7000000
 20
      4.2435600
 11
      7.8000000
 21
      4.2650200
0
LINE
  8
0
 10
      7.8000000
 20
      4.2650200
 11
      7.9000000
 21
      4.2862400
0
LINE
  8
0
 10
      7.9000000
 20
      4.2862400
 11
      8.0000000
 21
      4.3072300
0
LINE
  8
0
 10
      8.0000000
 20
      4.3072300
 11
      8.1000000
 21
      4.3279900
0
LINE
  8
0
 10
      8.1000000
 20
      4.3279900
 11
      8.2000000
 21
      4.3485100
0
LINE
  8
0
 10
      8.2000000
 20
      4.3485100
 11
      8.3000000
 21
      4.3688200
0
LINE
  8
0
 10
      8.3000000
 20
      4.3688200
 11
      8.4000000
 21
      4.3889000
0
LINE
  8
0
 10
      8.4000000
 20
      4.3889000
 11
      8.5000000
 21
      4.4087700
0
LINE
  8
0
 10
      8.5000000
 20
      4.4087700
 11
      8.6000000
 21
      4.4284200
0
LINE
  8
0
 10
      8.6000000
 20
      4.4284200
 11
      8.7000000
 21
      4.4478600
0
LINE
  8
0
 10
      8.7000000
 20
      4.4478600
 11
      8.8000000
 21
      4.4671000
0
LINE
  8
0
 10
      8.8000000
 20
      4.4671000
 11
      8.9000000
 21
      4.4861300
0
LINE
  8
0
 10
      8.9000000
 20
      4.4861300
 11
      9.0000000
 21
      4.5049600
0
LINE
  8
0
 10
      9.0000000
 20
      4.5049600
 11
      9.1000000
 21
      4.5235900
0
LINE
  8
0
 10
      9.1000000
 20
      4.5235900
 11
      9.2000000
 21
      4.5420200
0
LINE
  8
0
 10
      9.2000000
 20
      4.5420200
 11
      9.3000000
 21
      4.5602700
0
LINE
  8
0
 10
      9.3000000
 20
      4.5602700
 11
      9.4000000
 21
      4.5783200
0
LINE
  8
0
 10
      9.4000000
 20
      4.5783200
 11
      9.5000000
 21
      4.5961800
0
LINE
  8
0
 10
      9.5000000
 20
      4.5961800
 11
      9.6000000
 21
      4.6138600
0
LINE
  8
0
 10
      9.6000000
 20
      4.6138600
 11
      9.7000000
 21
      4.6313600
0
LINE
  8
0
 10
      9.7000000
 20
      4.6313600
 11
      9.8000000
 21
      4.6486700
0
LINE
  8
0
 10
      9.8000000
 20
      4.6486700
 11
      9.9000000
 21
      4.6658100
0
LINE
  8
0
 10
      9.9000000
 20
      4.6658100
 11
     10.0000000
 21
      4.6827700
0
LINE
  8
0
 10
     10.0000000
 20
      4.6827700
 11
     10.1000000
 21
      4.6995600
0
LINE
  8
0
 10
     10.1000000
 20
      4.6995600
 11
     10.2000000
 21
      4.7161800
0
LINE
  8
0
 10
     10.2000000
 20
      4.7161800
 11
     10.3000000
 21
      4.7326200
0
LINE
  8
0
 10
     10.3000000
 20
      4.7326200
 11
     10.4000000
 21
      4.7489000
0
LINE
  8
0
 10
     10.4000000
 20
      4.7489000
 11
     10.5000000
 21
      4.7650200
0
LINE
  8
0
 10
     10.5000000
 20
      4.7650200
 11
     10.6000000
 21
      4.7809700
0
LINE
  8
0
 10
     10.6000000
 20
      4.7809700
 11
     10.7000000
 21
      4.7967600
0
LINE
  8
0
 10
     10.7000000
 20
      4.7967600
 11
     10.8000000
 21
      4.8123900
0
LINE
  8
0
 10
     10.8000000
 20
      4.8123900
 11
     10.9000000
 21
      4.8278700
0
LINE
  8
0
 10
     10.9000000
 20
      4.8278700
 11
     11.0000000
 21
      4.8431900
0
LINE
  8
0
 10
     11.0000000
 20
      4.8431900
 11
     11.1000000
 21
      4.8583500
0
LINE
  8
0
 10
     11.1000000
 20
      4.8583500
 11
     11.2000000
 21
      4.8733600
0
LINE
  8
0
 10
     11.2000000
 20
      4.8733600
 11
     11.3000000
 21
      4.8882300
0
LINE
  8
0
 10
     11.3000000
 20
      4.8882300
 11
     11.4000000
 21
      4.9029400
0
LINE
  8
0
 10
     11.4000000
 20
      4.9029400
 11
     11.5000000
 21
      4.9175000
0
LINE
  8
0
 10
     11.5000000
 20
      4.9175000
 11
     11.6000000
 21
      4.9319300
0
LINE
  8
0
 10
     11.6000000
 20
      4.9319300
 11
     11.7000000
 21
      4.9462000
0
LINE
  8
0
 10
     11.7000000
 20
      4.9462000
 11
     11.8000000
 21
      4.9603400
0
LINE
  8
0
 10
     11.8000000
 20
      4.9603400
 11
     11.9000000
 21
      4.9743300
0
LINE
  8
0
 10
     11.9000000
 20
      4.9743300
 11
     12.0000000
 21
      4.9881800
0
LINE
  8
0
 10
     12.0000000
 20
      4.9881800
 11
     12.1000000
 21
      5.0019000
0
LINE
  8
0
 10
     12.1000000
 20
      5.0019000
 11
     12.2000000
 21
      5.0154800
0
LINE
  8
0
 10
     12.2000000
 20
      5.0154800
 11
     12.3000000
 21
      5.0289200
0
LINE
  8
0
 10
     12.3000000
 20
      5.0289200
 11
     12.4000000
 21
      5.0422300
0
LINE
  8
0
 10
     12.4000000
 20
      5.0422300
 11
     12.5000000
 21
      5.0554000
0
LINE
  8
0
 10
     12.5000000
 20
      5.0554000
 11
     12.6000000
 21
      5.0684500
0
LINE
  8
0
 10
     12.6000000
 20
      5.0684500
 11
     12.7000000
 21
      5.0813700
0
LINE
  8
0
 10
     12.7000000
 20
      5.0813700
 11
     12.8000000
 21
      5.0941500
0
LINE
  8
0
 10
     12.8000000
 20
      5.0941500
 11
     12.9000000
 21
      5.1068100
0
LINE
  8
0
 10
     12.9000000
 20
      5.1068100
 11
     13.0000000
 21
      5.1193400
0
LINE
  8
0
 10
     13.0000000
 20
      5.1193400
 11
     13.1000000
 21
      5.1317500
0
LINE
  8
0
 10
     13.1000000
 20
      5.1317500
 11
     13.2000000
 21
      5.1440300
0
LINE
  8
0
 10
     13.2000000
 20
      5.1440300
 11
     13.3000000
 21
      5.1562000
0
LINE
  8
0
 10
     13.3000000
 20
      5.1562000
 11
     13.4000000
 21
      5.1682300
0
LINE
  8
0
 10
     13.4000000
 20
      5.1682300
 11
     13.5000000
 21
      5.1801500
0
LINE
  8
0
 10
     13.5000000
 20
      5.1801500
 11
     13.6000000
 21
      5.1919500
0
LINE
  8
0
 10
     13.6000000
 20
      5.1919500
 11
     13.7000000
 21
      5.2036300
0
LINE
  8
0
 10
     13.7000000
 20
      5.2036300
 11
     13.8000000
 21
      5.2152000
0
LINE
  8
0
 10
     13.8000000
 20
      5.2152000
 11
     13.9000000
 21
      5.2266400
0
LINE
  8
0
 10
     13.9000000
 20
      5.2266400
 11
     14.0000000
 21
      5.2379700
0
LINE
  8
0
 10
     14.0000000
 20
      5.2379700
 11
     14.1000000
 21
      5.2491900
0
LINE
  8
0
 10
     14.1000000
 20
      5.2491900
 11
     14.2000000
 21
      5.2603000
0
LINE
  8
0
 10
     14.2000000
 20
      5.2603000
 11
     14.3000000
 21
      5.2712900
0
LINE
  8
0
 10
     14.3000000
 20
      5.2712900
 11
     14.4000000
 21
      5.2821700
0
LINE
  8
0
 10
     14.4000000
 20
      5.2821700
 11
     14.5000000
 21
      5.2929400
0
LINE
  8
0
 10
     14.5000000
 20
      5.2929400
 11
     14.6000000
 21
      5.3036000
0
LINE
  8
0
 10
     14.6000000
 20
      5.3036000
 11
     14.7000000
 21
      5.3141500
0
LINE
  8
0
 10
     14.7000000
 20
      5.3141500
 11
     14.8000000
 21
      5.3245900
0
LINE
  8
0
 10
     14.8000000
 20
      5.3245900
 11
     14.9000000
 21
      5.3349300
0
LINE
  8
0
 10
     14.9000000
 20
      5.3349300
 11
     15.0000000
 21
      5.3451600
0
LINE
  8
0
 10
     15.0000000
 20
      5.3451600
 11
     15.1000000
 21
      5.3552900
0
LINE
  8
0
 10
     15.1000000
 20
      5.3552900
 11
     15.2000000
 21
      5.3653100
0
LINE
  8
0
 10
     15.2000000
 20
      5.3653100
 11
     15.3000000
 21
      5.3752300
0
LINE
  8
0
 10
     15.3000000
 20
      5.3752300
 11
     15.4000000
 21
      5.3850400
0
LINE
  8
0
 10
     15.4000000
 20
      5.3850400
 11
     15.5000000
 21
      5.3947500
0
LINE
  8
0
 10
     15.5000000
 20
      5.3947500
 11
     15.6000000
 21
      5.4043700
0
LINE
  8
0
 10
     15.6000000
 20
      5.4043700
 11
     15.7000000
 21
      5.4138800
0
LINE
  8
0
 10
     15.7000000
 20
      5.4138800
 11
     15.8000000
 21
      5.4232900
0
LINE
  8
0
 10
     15.8000000
 20
      5.4232900
 11
     15.9000000
 21
      5.4326100
0
LINE
  8
0
 10
     15.9000000
 20
      5.4326100
 11
     16.0000000
 21
      5.4418200
0
LINE
  8
0
 10
     16.0000000
 20
      5.4418200
 11
     16.1000000
 21
      5.4509400
0
LINE
  8
0
 10
     16.1000000
 20
      5.4509400
 11
     16.2000000
 21
      5.4599600
0
LINE
  8
0
 10
     16.2000000
 20
      5.4599600
 11
     16.3000000
 21
      5.4688900
0
LINE
  8
0
 10
     16.3000000
 20
      5.4688900
 11
     16.4000000
 21
      5.4777200
0
LINE
  8
0
 10
     16.4000000
 20
      5.4777200
 11
     16.5000000
 21
      5.4864600
0
LINE
  8
0
 10
     16.5000000
 20
      5.4864600
 11
     16.6000000
 21
      5.4951000
0
LINE
  8
0
 10
     16.6000000
 20
      5.4951000
 11
     16.7000000
 21
      5.5036500
0
LINE
  8
0
 10
     16.7000000
 20
      5.5036500
 11
     16.8000000
 21
      5.5121100
0
LINE
  8
0
 10
     16.8000000
 20
      5.5121100
 11
     16.9000000
 21
      5.5204700
0
LINE
  8
0
 10
     16.9000000
 20
      5.5204700
 11
     17.0000000
 21
      5.5287500
0
LINE
  8
0
 10
     17.0000000
 20
      5.5287500
 11
     17.1000000
 21
      5.5369300
0
LINE
  8
0
 10
     17.1000000
 20
      5.5369300
 11
     17.2000000
 21
      5.5450200
0
LINE
  8
0
 10
     17.2000000
 20
      5.5450200
 11
     17.3000000
 21
      5.5530300
0
LINE
  8
0
 10
     17.3000000
 20
      5.5530300
 11
     17.4000000
 21
      5.5609500
0
LINE
  8
0
 10
     17.4000000
 20
      5.5609500
 11
     17.5000000
 21
      5.5687700
0
LINE
  8
0
 10
     17.5000000
 20
      5.5687700
 11
     17.6000000
 21
      5.5765200
0
LINE
  8
0
 10
     17.6000000
 20
      5.5765200
 11
     17.7000000
 21
      5.5841700
0
LINE
  8
0
 10
     17.7000000
 20
      5.5841700
 11
     17.8000000
 21
      5.5917400
0
LINE
  8
0
 10
     17.8000000
 20
      5.5917400
 11
     17.9000000
 21
      5.5992200
0
LINE
  8
0
 10
     17.9000000
 20
      5.5992200
 11
     18.0000000
 21
      5.6066200
0
LINE
  8
0
 10
     18.0000000
 20
      5.6066200
 11
     18.1000000
 21
      5.6139300
0
LINE
  8
0
 10
     18.1000000
 20
      5.6139300
 11
     18.2000000
 21
      5.6211600
0
LINE
  8
0
 10
     18.2000000
 20
      5.6211600
 11
     18.3000000
 21
      5.6283100
0
LINE
  8
0
 10
     18.3000000
 20
      5.6283100
 11
     18.4000000
 21
      5.6353700
0
LINE
  8
0
 10
     18.4000000
 20
      5.6353700
 11
     18.5000000
 21
      5.6423500
0
LINE
  8
0
 10
     18.5000000
 20
      5.6423500
 11
     18.6000000
 21
      5.6492500
0
LINE
  8
0
 10
     18.6000000
 20
      5.6492500
 11
     18.7000000
 21
      5.6560700
0
LINE
  8
0
 10
     18.7000000
 20
      5.6560700
 11
     18.8000000
 21
      5.6628100
0
LINE
  8
0
 10
     18.8000000
 20
      5.6628100
 11
     18.9000000
 21
      5.6694600
0
LINE
  8
0
 10
     18.9000000
 20
      5.6694600
 11
     19.0000000
 21
      5.6760400
0
LINE
  8
0
 10
     19.0000000
 20
      5.6760400
 11
     19.1000000
 21
      5.6825400
0
LINE
  8
0
 10
     19.1000000
 20
      5.6825400
 11
     19.2000000
 21
      5.6889600
0
LINE
  8
0
 10
     19.2000000
 20
      5.6889600
 11
     19.3000000
 21
      5.6953000
0
LINE
  8
0
 10
     19.3000000
 20
      5.6953000
 11
     19.4000000
 21
      5.7015600
0
LINE
  8
0
 10
     19.4000000
 20
      5.7015600
 11
     19.5000000
 21
      5.7077500
0
LINE
  8
0
 10
     19.5000000
 20
      5.7077500
 11
     19.6000000
 21
      5.7138600
0
LINE
  8
0
 10
     19.6000000
 20
      5.7138600
 11
     19.7000000
 21
      5.7198900
0
LINE
  8
0
 10
     19.7000000
 20
      5.7198900
 11
     19.8000000
 21
      5.7258500
0
LINE
  8
0
 10
     19.8000000
 20
      5.7258500
 11
     19.9000000
 21
      5.7317400
0
LINE
  8
0
 10
     19.9000000
 20
      5.7317400
 11
     20.0000000
 21
      5.7375400
0
LINE
  8
0
 10
     20.0000000
 20
      5.7375400
 11
     20.1000000
 21
      5.7432800
0
LINE
  8
0
 10
     20.1000000
 20
      5.7432800
 11
     20.2000000
 21
      5.7489400
0
LINE
  8
0
 10
     20.2000000
 20
      5.7489400
 11
     20.3000000
 21
      5.7545200
0
LINE
  8
0
 10
     20.3000000
 20
      5.7545200
 11
     20.4000000
 21
      5.7600300
0
LINE
  8
0
 10
     20.4000000
 20
      5.7600300
 11
     20.5000000
 21
      5.7654700
0
LINE
  8
0
 10
     20.5000000
 20
      5.7654700
 11
     20.6000000
 21
      5.7708400
0
LINE
  8
0
 10
     20.6000000
 20
      5.7708400
 11
     20.7000000
 21
      5.7761400
0
LINE
  8
0
 10
     20.7000000
 20
      5.7761400
 11
     20.8000000
 21
      5.7813600
0
LINE
  8
0
 10
     20.8000000
 20
      5.7813600
 11
     20.9000000
 21
      5.7865100
0
LINE
  8
0
 10
     20.9000000
 20
      5.7865100
 11
     21.0000000
 21
      5.7916000
0
LINE
  8
0
 10
     21.0000000
 20
      5.7916000
 11
     21.1000000
 21
      5.7966100
0
LINE
  8
0
 10
     21.1000000
 20
      5.7966100
 11
     21.2000000
 21
      5.8015500
0
LINE
  8
0
 10
     21.2000000
 20
      5.8015500
 11
     21.3000000
 21
      5.8064300
0
LINE
  8
0
 10
     21.3000000
 20
      5.8064300
 11
     21.4000000
 21
      5.8112300
0
LINE
  8
0
 10
     21.4000000
 20
      5.8112300
 11
     21.5000000
 21
      5.8159700
0
LINE
  8
0
 10
     21.5000000
 20
      5.8159700
 11
     21.6000000
 21
      5.8206300
0
LINE
  8
0
 10
     21.6000000
 20
      5.8206300
 11
     21.7000000
 21
      5.8252300
0
LINE
  8
0
 10
     21.7000000
 20
      5.8252300
 11
     21.8000000
 21
      5.8297600
0
LINE
  8
0
 10
     21.8000000
 20
      5.8297600
 11
     21.9000000
 21
      5.8342300
0
LINE
  8
0
 10
     21.9000000
 20
      5.8342300
 11
     22.0000000
 21
      5.8386300
0
LINE
  8
0
 10
     22.0000000
 20
      5.8386300
 11
     22.1000000
 21
      5.8429600
0
LINE
  8
0
 10
     22.1000000
 20
      5.8429600
 11
     22.2000000
 21
      5.8472300
0
LINE
  8
0
 10
     22.2000000
 20
      5.8472300
 11
     22.3000000
 21
      5.8514300
0
LINE
  8
0
 10
     22.3000000
 20
      5.8514300
 11
     22.4000000
 21
      5.8555600
0
LINE
  8
0
 10
     22.4000000
 20
      5.8555600
 11
     22.5000000
 21
      5.8596300
0
LINE
  8
0
 10
     22.5000000
 20
      5.8596300
 11
     22.6000000
 21
      5.8636400
0
LINE
  8
0
 10
     22.6000000
 20
      5.8636400
 11
     22.7000000
 21
      5.8675800
0
LINE
  8
0
 10
     22.7000000
 20
      5.8675800
 11
     22.8000000
 21
      5.8714500
0
LINE
  8
0
 10
     22.8000000
 20
      5.8714500
 11
     22.9000000
 21
      5.8752700
0
LINE
  8
0
 10
     22.9000000
 20
      5.8752700
 11
     23.0000000
 21
      5.8790200
0
LINE
  8
0
 10
     23.0000000
 20
      5.8790200
 11
     23.1000000
 21
      5.8827100
0
LINE
  8
0
 10
     23.1000000
 20
      5.8827100
 11
     23.2000000
 21
      5.8863300
0
LINE
  8
0
 10
     23.2000000
 20
      5.8863300
 11
     23.3000000
 21
      5.8898900
0
LINE
  8
0
 10
     23.3000000
 20
      5.8898900
 11
     23.4000000
 21
      5.8933900
0
LINE
  8
0
 10
     23.4000000
 20
      5.8933900
 11
     23.5000000
 21
      5.8968300
0
LINE
  8
0
 10
     23.5000000
 20
      5.8968300
 11
     23.6000000
 21
      5.9002100
0
LINE
  8
0
 10
     23.6000000
 20
      5.9002100
 11
     23.7000000
 21
      5.9035300
0
LINE
  8
0
 10
     23.7000000
 20
      5.9035300
 11
     23.8000000
 21
      5.9067900
0
LINE
  8
0
 10
     23.8000000
 20
      5.9067900
 11
     23.9000000
 21
      5.9099800
0
LINE
  8
0
 10
     23.9000000
 20
      5.9099800
 11
     24.0000000
 21
      5.9131200
0
LINE
  8
0
 10
     24.0000000
 20
      5.9131200
 11
     24.1000000
 21
      5.9161900
0
LINE
  8
0
 10
     24.1000000
 20
      5.9161900
 11
     24.2000000
 21
      5.9192100
0
LINE
  8
0
 10
     24.2000000
 20
      5.9192100
 11
     24.3000000
 21
      5.9221700
0
LINE
  8
0
 10
     24.3000000
 20
      5.9221700
 11
     24.4000000
 21
      5.9250700
0
LINE
  8
0
 10
     24.4000000
 20
      5.9250700
 11
     24.5000000
 21
      5.9279100
0
LINE
  8
0
 10
     24.5000000
 20
      5.9279100
 11
     24.6000000
 21
      5.9306900
0
LINE
  8
0
 10
     24.6000000
 20
      5.9306900
 11
     24.7000000
 21
      5.9334100
0
LINE
  8
0
 10
     24.7000000
 20
      5.9334100
 11
     24.8000000
 21
      5.9360800
0
LINE
  8
0
 10
     24.8000000
 20
      5.9360800
 11
     24.9000000
 21
      5.9386900
0
LINE
  8
0
 10
     24.9000000
 20
      5.9386900
 11
     25.0000000
 21
      5.9412400
0
LINE
  8
0
 10
     25.0000000
 20
      5.9412400
 11
     25.1000000
 21
      5.9437400
0
LINE
  8
0
 10
     25.1000000
 20
      5.9437400
 11
     25.2000000
 21
      5.9461800
0
LINE
  8
0
 10
     25.2000000
 20
      5.9461800
 11
     25.3000000
 21
      5.9485600
0
LINE
  8
0
 10
     25.3000000
 20
      5.9485600
 11
     25.4000000
 21
      5.9508900
0
LINE
  8
0
 10
     25.4000000
 20
      5.9508900
 11
     25.5000000
 21
      5.9531600
0
LINE
  8
0
 10
     25.5000000
 20
      5.9531600
 11
     25.6000000
 21
      5.9553700
0
LINE
  8
0
 10
     25.6000000
 20
      5.9553700
 11
     25.7000000
 21
      5.9575300
0
LINE
  8
0
 10
     25.7000000
 20
      5.9575300
 11
     25.8000000
 21
      5.9596400
0
LINE
  8
0
 10
     25.8000000
 20
      5.9596400
 11
     25.9000000
 21
      5.9616900
0
LINE
  8
0
 10
     25.9000000
 20
      5.9616900
 11
     26.0000000
 21
      5.9636900
0
LINE
  8
0
 10
     26.0000000
 20
      5.9636900
 11
     26.1000000
 21
      5.9656300
0
LINE
  8
0
 10
     26.1000000
 20
      5.9656300
 11
     26.2000000
 21
      5.9675200
0
LINE
  8
0
 10
     26.2000000
 20
      5.9675200
 11
     26.3000000
 21
      5.9693500
0
LINE
  8
0
 10
     26.3000000
 20
      5.9693500
 11
     26.4000000
 21
      5.9711300
0
LINE
  8
0
 10
     26.4000000
 20
      5.9711300
 11
     26.5000000
 21
      5.9728600
0
LINE
  8
0
 10
     26.5000000
 20
      5.9728600
 11
     26.6000000
 21
      5.9745400
0
LINE
  8
0
 10
     26.6000000
 20
      5.9745400
 11
     26.7000000
 21
      5.9761600
0
LINE
  8
0
 10
     26.7000000
 20
      5.9761600
 11
     26.8000000
 21
      5.9777300
0
LINE
  8
0
 10
     26.8000000
 20
      5.9777300
 11
     26.9000000
 21
      5.9792500
0
LINE
  8
0
 10
     26.9000000
 20
      5.9792500
 11
     27.0000000
 21
      5.9807200
0
LINE
  8
0
 10
     27.0000000
 20
      5.9807200
 11
     27.1000000
 21
      5.9821300
0
LINE
  8
0
 10
     27.1000000
 20
      5.9821300
 11
     27.2000000
 21
      5.9834900
0
LINE
  8
0
 10
     27.2000000
 20
      5.9834900
 11
     27.3000000
 21
      5.9848100
0
LINE
  8
0
 10
     27.3000000
 20
      5.9848100
 11
     27.4000000
 21
      5.9860700
0
LINE
  8
0
 10
     27.4000000
 20
      5.9860700
 11
     27.5000000
 21
      5.9872800
0
LINE
  8
0
 10
     27.5000000
 20
      5.9872800
 11
     27.6000000
 21
      5.9884400
0
LINE
  8
0
 10
     27.6000000
 20
      5.9884400
 11
     27.7000000
 21
      5.9895500
0
LINE
  8
0
 10
     27.7000000
 20
      5.9895500
 11
     27.8000000
 21
      5.9906100
0
LINE
  8
0
 10
     27.8000000
 20
      5.9906100
 11
     27.9000000
 21
      5.9916200
0
LINE
  8
0
 10
     27.9000000
 20
      5.9916200
 11
     28.0000000
 21
      5.9925800
0
LINE
  8
0
 10
     28.0000000
 20
      5.9925800
 11
     28.1000000
 21
      5.9934900
0
LINE
  8
0
 10
     28.1000000
 20
      5.9934900
 11
     28.2000000
 21
      5.9943600
0
LINE
  8
0
 10
     28.2000000
 20
      5.9943600
 11
     28.3000000
 21
      5.9951700
0
LINE
  8
0
 10
     28.3000000
 20
      5.9951700
 11
     28.4000000
 21
      5.9959300
0
LINE
  8
0
 10
     28.4000000
 20
      5.9959300
 11
     28.5000000
 21
      5.9966500
0
LINE
  8
0
 10
     28.5000000
 20
      5.9966500
 11
     28.6000000
 21
      5.9973200
0
LINE
  8
0
 10
     28.6000000
 20
      5.9973200
 11
     28.7000000
 21
      5.9979400
0
LINE
  8
0
 10
     28.7000000
 20
      5.9979400
 11
     28.8000000
 21
      5.9985100
0
LINE
  8
0
 10
     28.8000000
 20
      5.9985100
 11
     28.9000000
 21
      5.9990400
0
LINE
  8
0
 10
     28.9000000
 20
      5.9990400
 11
     29.0000000
 21
      5.9995100
0
LINE
  8
0
 10
     29.0000000
 20
      5.9995100
 11
     29.1000000
 21
      5.9999400
0
LINE
  8
0
 10
     29.1000000
 20
      5.9999400
 11
     29.2000000
 21
      6.0003300
0
LINE
  8
0
 10
     29.2000000
 20
      6.0003300
 11
     29.3000000
 21
      6.0006600
0
LINE
  8
0
 10
     29.3000000
 20
      6.0006600
 11
     29.4000000
 21
      6.0009500
0
LINE
  8
0
 10
     29.4000000
 20
      6.0009500
 11
     29.5000000
 21
      6.0012000
0
LINE
  8
0
 10
     29.5000000
 20
      6.0012000
 11
     29.6000000
 21
      6.0013900
0
LINE
  8
0
 10
     29.6000000
 20
      6.0013900
 11
     29.7000000
 21
      6.0015500
0
LINE
  8
0
 10
     29.7000000
 20
      6.0015500
 11
     29.8000000
 21
      6.0016500
0
LINE
  8
0
 10
     29.8000000
 20
      6.0016500
 11
     29.9000000
 21
      6.0017100
0
LINE
  8
0
 10
     29.9000000
 20
      6.0017100
 11
     30.0000000
 21
      6.0017300
0
LINE
  8
0
 10
     30.0000000
 20
      6.0017300
 11
     30.1000000
 21
      6.0017000
0
LINE
  8
0
 10
     30.1000000
 20
      6.0017000
 11
     30.2000000
 21
      6.0016200
0
LINE
  8
0
 10
     30.2000000
 20
      6.0016200
 11
     30.3000000
 21
      6.0015000
0
LINE
  8
0
 10
     30.3000000
 20
      6.0015000
 11
     30.4000000
 21
      6.0013400
0
LINE
  8
0
 10
     30.4000000
 20
      6.0013400
 11
     30.5000000
 21
      6.0011300
0
LINE
  8
0
 10
     30.5000000
 20
      6.0011300
 11
     30.6000000
 21
      6.0008700
0
LINE
  8
0
 10
     30.6000000
 20
      6.0008700
 11
     30.7000000
 21
      6.0005800
0
LINE
  8
0
 10
     30.7000000
 20
      6.0005800
 11
     30.8000000
 21
      6.0002400
0
LINE
  8
0
 10
     30.8000000
 20
      6.0002400
 11
     30.9000000
 21
      5.9998500
0
LINE
  8
0
 10
     30.9000000
 20
      5.9998500
 11
     31.0000000
 21
      5.9994200
0
LINE
  8
0
 10
     31.0000000
 20
      5.9994200
 11
     31.1000000
 21
      5.9989500
0
LINE
  8
0
 10
     31.1000000
 20
      5.9989500
 11
     31.2000000
 21
      5.9984400
0
LINE
  8
0
 10
     31.2000000
 20
      5.9984400
 11
     31.3000000
 21
      5.9978800
0
LINE
  8
0
 10
     31.3000000
 20
      5.9978800
 11
     31.4000000
 21
      5.9972800
0
LINE
  8
0
 10
     31.4000000
 20
      5.9972800
 11
     31.5000000
 21
      5.9966400
0
LINE
  8
0
 10
     31.5000000
 20
      5.9966400
 11
     31.6000000
 21
      5.9959500
0
LINE
  8
0
 10
     31.6000000
 20
      5.9959500
 11
     31.7000000
 21
      5.9952200
0
LINE
  8
0
 10
     31.7000000
 20
      5.9952200
 11
     31.8000000
 21
      5.9944500
0
LINE
  8
0
 10
     31.8000000
 20
      5.9944500
 11
     31.9000000
 21
      5.9936400
0
LINE
  8
0
 10
     31.9000000
 20
      5.9936400
 11
     32.0000000
 21
      5.9927900
0
LINE
  8
0
 10
     32.0000000
 20
      5.9927900
 11
     32.1000000
 21
      5.9918900
0
LINE
  8
0
 10
     32.1000000
 20
      5.9918900
 11
     32.2000000
 21
      5.9909600
0
LINE
  8
0
 10
     32.2000000
 20
      5.9909600
 11
     32.3000000
 21
      5.9899800
0
LINE
  8
0
 10
     32.3000000
 20
      5.9899800
 11
     32.4000000
 21
      5.9889600
0
LINE
  8
0
 10
     32.4000000
 20
      5.9889600
 11
     32.5000000
 21
      5.9879000
0
LINE
  8
0
 10
     32.5000000
 20
      5.9879000
 11
     32.6000000
 21
      5.9868000
0
LINE
  8
0
 10
     32.6000000
 20
      5.9868000
 11
     32.7000000
 21
      5.9856600
0
LINE
  8
0
 10
     32.7000000
 20
      5.9856600
 11
     32.8000000
 21
      5.9844800
0
LINE
  8
0
 10
     32.8000000
 20
      5.9844800
 11
     32.9000000
 21
      5.9832600
0
LINE
  8
0
 10
     32.9000000
 20
      5.9832600
 11
     33.0000000
 21
      5.9820000
0
LINE
  8
0
 10
     33.0000000
 20
      5.9820000
 11
     33.1000000
 21
      5.9807000
0
LINE
  8
0
 10
     33.1000000
 20
      5.9807000
 11
     33.2000000
 21
      5.9793600
0
LINE
  8
0
 10
     33.2000000
 20
      5.9793600
 11
     33.3000000
 21
      5.9779800
0
LINE
  8
0
 10
     33.3000000
 20
      5.9779800
 11
     33.4000000
 21
      5.9765600
0
LINE
  8
0
 10
     33.4000000
 20
      5.9765600
 11
     33.5000000
 21
      5.9751000
0
LINE
  8
0
 10
     33.5000000
 20
      5.9751000
 11
     33.6000000
 21
      5.9736000
0
LINE
  8
0
 10
     33.6000000
 20
      5.9736000
 11
     33.7000000
 21
      5.9720700
0
LINE
  8
0
 10
     33.7000000
 20
      5.9720700
 11
     33.8000000
 21
      5.9704900
0
LINE
  8
0
 10
     33.8000000
 20
      5.9704900
 11
     33.9000000
 21
      5.9688800
0
LINE
  8
0
 10
     33.9000000
 20
      5.9688800
 11
     34.0000000
 21
      5.9672300
0
LINE
  8
0
 10
     34.0000000
 20
      5.9672300
 11
     34.1000000
 21
      5.9655300
0
LINE
  8
0
 10
     34.1000000
 20
      5.9655300
 11
     34.2000000
 21
      5.9638100
0
LINE
  8
0
 10
     34.2000000
 20
      5.9638100
 11
     34.3000000
 21
      5.9620400
0
LINE
  8
0
 10
     34.3000000
 20
      5.9620400
 11
     34.4000000
 21
      5.9602300
0
LINE
  8
0
 10
     34.4000000
 20
      5.9602300
 11
     34.5000000
 21
      5.9583900
0
LINE
  8
0
 10
     34.5000000
 20
      5.9583900
 11
     34.6000000
 21
      5.9565100
0
LINE
  8
0
 10
     34.6000000
 20
      5.9565100
 11
     34.7000000
 21
      5.9545900
0
LINE
  8
0
 10
     34.7000000
 20
      5.9545900
 11
     34.8000000
 21
      5.9526400
0
LINE
  8
0
 10
     34.8000000
 20
      5.9526400
 11
     34.9000000
 21
      5.9506500
0
LINE
  8
0
 10
     34.9000000
 20
      5.9506500
 11
     35.0000000
 21
      5.9486200
0
LINE
  8
0
 10
     35.0000000
 20
      5.9486200
 11
     35.1000000
 21
      5.9465500
0
LINE
  8
0
 10
     35.1000000
 20
      5.9465500
 11
     35.2000000
 21
      5.9444500
0
LINE
  8
0
 10
     35.2000000
 20
      5.9444500
 11
     35.3000000
 21
      5.9423100
0
LINE
  8
0
 10
     35.3000000
 20
      5.9423100
 11
     35.4000000
 21
      5.9401400
0
LINE
  8
0
 10
     35.4000000
 20
      5.9401400
 11
     35.5000000
 21
      5.9379200
0
LINE
  8
0
 10
     35.5000000
 20
      5.9379200
 11
     35.6000000
 21
      5.9356800
0
LINE
  8
0
 10
     35.6000000
 20
      5.9356800
 11
     35.7000000
 21
      5.9333900
0
LINE
  8
0
 10
     35.7000000
 20
      5.9333900
 11
     35.8000000
 21
      5.9310700
0
LINE
  8
0
 10
     35.8000000
 20
      5.9310700
 11
     35.9000000
 21
      5.9287200
0
LINE
  8
0
 10
     35.9000000
 20
      5.9287200
 11
     36.0000000
 21
      5.9263300
0
LINE
  8
0
 10
     36.0000000
 20
      5.9263300
 11
     36.1000000
 21
      5.9239000
0
LINE
  8
0
 10
     36.1000000
 20
      5.9239000
 11
     36.2000000
 21
      5.9214400
0
LINE
  8
0
 10
     36.2000000
 20
      5.9214400
 11
     36.3000000
 21
      5.9189400
0
LINE
  8
0
 10
     36.3000000
 20
      5.9189400
 11
     36.4000000
 21
      5.9164100
0
LINE
  8
0
 10
     36.4000000
 20
      5.9164100
 11
     36.5000000
 21
      5.9138500
0
LINE
  8
0
 10
     36.5000000
 20
      5.9138500
 11
     36.6000000
 21
      5.9112400
0
LINE
  8
0
 10
     36.6000000
 20
      5.9112400
 11
     36.7000000
 21
      5.9086100
0
LINE
  8
0
 10
     36.7000000
 20
      5.9086100
 11
     36.8000000
 21
      5.9059400
0
LINE
  8
0
 10
     36.8000000
 20
      5.9059400
 11
     36.9000000
 21
      5.9032300
0
LINE
  8
0
 10
     36.9000000
 20
      5.9032300
 11
     37.0000000
 21
      5.9004900
0
LINE
  8
0
 10
     37.0000000
 20
      5.9004900
 11
     37.1000000
 21
      5.8977200
0
LINE
  8
0
 10
     37.1000000
 20
      5.8977200
 11
     37.2000000
 21
      5.8949100
0
LINE
  8
0
 10
     37.2000000
 20
      5.8949100
 11
     37.3000000
 21
      5.8920700
0
LINE
  8
0
 10
     37.3000000
 20
      5.8920700
 11
     37.4000000
 21
      5.8892000
0
LINE
  8
0
 10
     37.4000000
 20
      5.8892000
 11
     37.5000000
 21
      5.8862900
0
LINE
  8
0
 10
     37.5000000
 20
      5.8862900
 11
     37.6000000
 21
      5.8833500
0
LINE
  8
0
 10
     37.6000000
 20
      5.8833500
 11
     37.7000000
 21
      5.8803700
0
LINE
  8
0
 10
     37.7000000
 20
      5.8803700
 11
     37.8000000
 21
      5.8773600
0
LINE
  8
0
 10
     37.8000000
 20
      5.8773600
 11
     37.9000000
 21
      5.8743200
0
LINE
  8
0
 10
     37.9000000
 20
      5.8743200
 11
     38.0000000
 21
      5.8712500
0
LINE
  8
0
 10
     38.0000000
 20
      5.8712500
 11
     38.1000000
 21
      5.8681400
0
LINE
  8
0
 10
     38.1000000
 20
      5.8681400
 11
     38.2000000
 21
      5.8650000
0
LINE
  8
0
 10
     38.2000000
 20
      5.8650000
 11
     38.3000000
 21
      5.8618300
0
LINE
  8
0
 10
     38.3000000
 20
      5.8618300
 11
     38.4000000
 21
      5.8586200
0
LINE
  8
0
 10
     38.4000000
 20
      5.8586200
 11
     38.5000000
 21
      5.8553800
0
LINE
  8
0
 10
     38.5000000
 20
      5.8553800
 11
     38.6000000
 21
      5.8521100
0
LINE
  8
0
 10
     38.6000000
 20
      5.8521100
 11
     38.7000000
 21
      5.8488100
0
LINE
  8
0
 10
     38.7000000
 20
      5.8488100
 11
     38.8000000
 21
      5.8454800
0
LINE
  8
0
 10
     38.8000000
 20
      5.8454800
 11
     38.9000000
 21
      5.8421100
0
LINE
  8
0
 10
     38.9000000
 20
      5.8421100
 11
     39.0000000
 21
      5.8387100
0
LINE
  8
0
 10
     39.0000000
 20
      5.8387100
 11
     39.1000000
 21
      5.8352800
0
LINE
  8
0
 10
     39.1000000
 20
      5.8352800
 11
     39.2000000
 21
      5.8318200
0
LINE
  8
0
 10
     39.2000000
 20
      5.8318200
 11
     39.3000000
 21
      5.8283300
0
LINE
  8
0
 10
     39.3000000
 20
      5.8283300
 11
     39.4000000
 21
      5.8248100
0
LINE
  8
0
 10
     39.4000000
 20
      5.8248100
 11
     39.5000000
 21
      5.8212500
0
LINE
  8
0
 10
     39.5000000
 20
      5.8212500
 11
     39.6000000
 21
      5.8176600
0
LINE
  8
0
 10
     39.6000000
 20
      5.8176600
 11
     39.7000000
 21
      5.8140500
0
LINE
  8
0
 10
     39.7000000
 20
      5.8140500
 11
     39.8000000
 21
      5.8104000
0
LINE
  8
0
 10
     39.8000000
 20
      5.8104000
 11
     39.9000000
 21
      5.8067200
0
LINE
  8
0
 10
     39.9000000
 20
      5.8067200
 11
     40.0000000
 21
      5.8030100
0
LINE
  8
0
 10
     40.0000000
 20
      5.8030100
 11
     40.1000000
 21
      5.7992700
0
LINE
  8
0
 10
     40.1000000
 20
      5.7992700
 11
     40.2000000
 21
      5.7955000
0
LINE
  8
0
 10
     40.2000000
 20
      5.7955000
 11
     40.3000000
 21
      5.7917000
0
LINE
  8
0
 10
     40.3000000
 20
      5.7917000
 11
     40.4000000
 21
      5.7878700
0
LINE
  8
0
 10
     40.4000000
 20
      5.7878700
 11
     40.5000000
 21
      5.7840100
0
LINE
  8
0
 10
     40.5000000
 20
      5.7840100
 11
     40.6000000
 21
      5.7801200
0
LINE
  8
0
 10
     40.6000000
 20
      5.7801200
 11
     40.7000000
 21
      5.7762000
0
LINE
  8
0
 10
     40.7000000
 20
      5.7762000
 11
     40.8000000
 21
      5.7722400
0
LINE
  8
0
 10
     40.8000000
 20
      5.7722400
 11
     40.9000000
 21
      5.7682600
0
LINE
  8
0
 10
     40.9000000
 20
      5.7682600
 11
     41.0000000
 21
      5.7642500
0
LINE
  8
0
 10
     41.0000000
 20
      5.7642500
 11
     41.1000000
 21
      5.7602100
0
LINE
  8
0
 10
     41.1000000
 20
      5.7602100
 11
     41.2000000
 21
      5.7561500
0
LINE
  8
0
 10
     41.2000000
 20
      5.7561500
 11
     41.3000000
 21
      5.7520500
0
LINE
  8
0
 10
     41.3000000
 20
      5.7520500
 11
     41.4000000
 21
      5.7479200
0
LINE
  8
0
 10
     41.4000000
 20
      5.7479200
 11
     41.5000000
 21
      5.7437600
0
LINE
  8
0
 10
     41.5000000
 20
      5.7437600
 11
     41.6000000
 21
      5.7395800
0
LINE
  8
0
 10
     41.6000000
 20
      5.7395800
 11
     41.7000000
 21
      5.7353600
0
LINE
  8
0
 10
     41.7000000
 20
      5.7353600
 11
     41.8000000
 21
      5.7311200
0
LINE
  8
0
 10
     41.8000000
 20
      5.7311200
 11
     41.9000000
 21
      5.7268500
0
LINE
  8
0
 10
     41.9000000
 20
      5.7268500
 11
     42.0000000
 21
      5.7225500
0
LINE
  8
0
 10
     42.0000000
 20
      5.7225500
 11
     42.1000000
 21
      5.7182200
0
LINE
  8
0
 10
     42.1000000
 20
      5.7182200
 11
     42.2000000
 21
      5.7138600
0
LINE
  8
0
 10
     42.2000000
 20
      5.7138600
 11
     42.3000000
 21
      5.7094800
0
LINE
  8
0
 10
     42.3000000
 20
      5.7094800
 11
     42.4000000
 21
      5.7050600
0
LINE
  8
0
 10
     42.4000000
 20
      5.7050600
 11
     42.5000000
 21
      5.7006200
0
LINE
  8
0
 10
     42.5000000
 20
      5.7006200
 11
     42.6000000
 21
      5.6961500
0
LINE
  8
0
 10
     42.6000000
 20
      5.6961500
 11
     42.7000000
 21
      5.6916500
0
LINE
  8
0
 10
     42.7000000
 20
      5.6916500
 11
     42.8000000
 21
      5.6871300
0
LINE
  8
0
 10
     42.8000000
 20
      5.6871300
 11
     42.9000000
 21
      5.6825800
0
LINE
  8
0
 10
     42.9000000
 20
      5.6825800
 11
     43.0000000
 21
      5.6780000
0
LINE
  8
0
 10
     43.0000000
 20
      5.6780000
 11
     43.1000000
 21
      5.6733900
0
LINE
  8
0
 10
     43.1000000
 20
      5.6733900
 11
     43.2000000
 21
      5.6687500
0
LINE
  8
0
 10
     43.2000000
 20
      5.6687500
 11
     43.3000000
 21
      5.6640900
0
LINE
  8
0
 10
     43.3000000
 20
      5.6640900
 11
     43.4000000
 21
      5.6594000
0
LINE
  8
0
 10
     43.4000000
 20
      5.6594000
 11
     43.5000000
 21
      5.6546800
0
LINE
  8
0
 10
     43.5000000
 20
      5.6546800
 11
     43.6000000
 21
      5.6499400
0
LINE
  8
0
 10
     43.6000000
 20
      5.6499400
 11
     43.7000000
 21
      5.6451700
0
LINE
  8
0
 10
     43.7000000
 20
      5.6451700
 11
     43.8000000
 21
      5.6403700
0
LINE
  8
0
 10
     43.8000000
 20
      5.6403700
 11
     43.9000000
 21
      5.6355500
0
LINE
  8
0
 10
     43.9000000
 20
      5.6355500
 11
     44.0000000
 21
      5.6306900
0
LINE
  8
0
 10
     44.0000000
 20
      5.6306900
 11
     44.1000000
 21
      5.6258200
0
LINE
  8
0
 10
     44.1000000
 20
      5.6258200
 11
     44.2000000
 21
      5.6209100
0
LINE
  8
0
 10
     44.2000000
 20
      5.6209100
 11
     44.3000000
 21
      5.6159800
0
LINE
  8
0
 10
     44.3000000
 20
      5.6159800
 11
     44.4000000
 21
      5.6110300
0
LINE
  8
0
 10
     44.4000000
 20
      5.6110300
 11
     44.5000000
 21
      5.6060400
0
LINE
  8
0
 10
     44.5000000
 20
      5.6060400
 11
     44.6000000
 21
      5.6010300
0
LINE
  8
0
 10
     44.6000000
 20
      5.6010300
 11
     44.7000000
 21
      5.5960000
0
LINE
  8
0
 10
     44.7000000
 20
      5.5960000
 11
     44.8000000
 21
      5.5909400
0
LINE
  8
0
 10
     44.8000000
 20
      5.5909400
 11
     44.9000000
 21
      5.5858500
0
LINE
  8
0
 10
     44.9000000
 20
      5.5858500
 11
     45.0000000
 21
      5.5807400
0
LINE
  8
0
 10
     45.0000000
 20
      5.5807400
 11
     45.1000000
 21
      5.5756000
0
LINE
  8
0
 10
     45.1000000
 20
      5.5756000
 11
     45.2000000
 21
      5.5704300
0
LINE
  8
0
 10
     45.2000000
 20
      5.5704300
 11
     45.3000000
 21
      5.5652400
0
LINE
  8
0
 10
     45.3000000
 20
      5.5652400
 11
     45.4000000
 21
      5.5600300
0
LINE
  8
0
 10
     45.4000000
 20
      5.5600300
 11
     45.5000000
 21
      5.5547900
0
LINE
  8
0
 10
     45.5000000
 20
      5.5547900
 11
     45.6000000
 21
      5.5495200
0
LINE
  8
0
 10
     45.6000000
 20
      5.5495200
 11
     45.7000000
 21
      5.5442300
0
LINE
  8
0
 10
     45.7000000
 20
      5.5442300
 11
     45.8000000
 21
      5.5389200
0
LINE
  8
0
 10
     45.8000000
 20
      5.5389200
 11
     45.9000000
 21
      5.5335800
0
LINE
  8
0
 10
     45.9000000
 20
      5.5335800
 11
     46.0000000
 21
      5.5282100
0
LINE
  8
0
 10
     46.0000000
 20
      5.5282100
 11
     46.1000000
 21
      5.5228200
0
LINE
  8
0
 10
     46.1000000
 20
      5.5228200
 11
     46.2000000
 21
      5.5174000
0
LINE
  8
0
 10
     46.2000000
 20
      5.5174000
 11
     46.3000000
 21
      5.5119600
0
LINE
  8
0
 10
     46.3000000
 20
      5.5119600
 11
     46.4000000
 21
      5.5065000
0
LINE
  8
0
 10
     46.4000000
 20
      5.5065000
 11
     46.5000000
 21
      5.5010100
0
LINE
  8
0
 10
     46.5000000
 20
      5.5010100
 11
     46.6000000
 21
      5.4955000
0
LINE
  8
0
 10
     46.6000000
 20
      5.4955000
 11
     46.7000000
 21
      5.4899600
0
LINE
  8
0
 10
     46.7000000
 20
      5.4899600
 11
     46.8000000
 21
      5.4843900
0
LINE
  8
0
 10
     46.8000000
 20
      5.4843900
 11
     46.9000000
 21
      5.4788100
0
LINE
  8
0
 10
     46.9000000
 20
      5.4788100
 11
     47.0000000
 21
      5.4732000
0
LINE
  8
0
 10
     47.0000000
 20
      5.4732000
 11
     47.1000000
 21
      5.4675600
0
LINE
  8
0
 10
     47.1000000
 20
      5.4675600
 11
     47.2000000
 21
      5.4619000
0
LINE
  8
0
 10
     47.2000000
 20
      5.4619000
 11
     47.3000000
 21
      5.4562200
0
LINE
  8
0
 10
     47.3000000
 20
      5.4562200
 11
     47.4000000
 21
      5.4505100
0
LINE
  8
0
 10
     47.4000000
 20
      5.4505100
 11
     47.5000000
 21
      5.4447800
0
LINE
  8
0
 10
     47.5000000
 20
      5.4447800
 11
     47.6000000
 21
      5.4390300
0
LINE
  8
0
 10
     47.6000000
 20
      5.4390300
 11
     47.7000000
 21
      5.4332500
0
LINE
  8
0
 10
     47.7000000
 20
      5.4332500
 11
     47.8000000
 21
      5.4274500
0
LINE
  8
0
 10
     47.8000000
 20
      5.4274500
 11
     47.9000000
 21
      5.4216300
0
LINE
  8
0
 10
     47.9000000
 20
      5.4216300
 11
     48.0000000
 21
      5.4157800
0
LINE
  8
0
 10
     48.0000000
 20
      5.4157800
 11
     48.1000000
 21
      5.4099100
0
LINE
  8
0
 10
     48.1000000
 20
      5.4099100
 11
     48.2000000
 21
      5.4040100
0
LINE
  8
0
 10
     48.2000000
 20
      5.4040100
 11
     48.3000000
 21
      5.3981000
0
LINE
  8
0
 10
     48.3000000
 20
      5.3981000
 11
     48.4000000
 21
      5.3921600
0
LINE
  8
0
 10
     48.4000000
 20
      5.3921600
 11
     48.5000000
 21
      5.3861900
0
LINE
  8
0
 10
     48.5000000
 20
      5.3861900
 11
     48.6000000
 21
      5.3802100
0
LINE
  8
0
 10
     48.6000000
 20
      5.3802100
 11
     48.7000000
 21
      5.3742000
0
LINE
  8
0
 10
     48.7000000
 20
      5.3742000
 11
     48.8000000
 21
      5.3681600
0
LINE
  8
0
 10
     48.8000000
 20
      5.3681600
 11
     48.9000000
 21
      5.3621100
0
LINE
  8
0
 10
     48.9000000
 20
      5.3621100
 11
     49.0000000
 21
      5.3560300
0
LINE
  8
0
 10
     49.0000000
 20
      5.3560300
 11
     49.1000000
 21
      5.3499300
0
LINE
  8
0
 10
     49.1000000
 20
      5.3499300
 11
     49.2000000
 21
      5.3438100
0
LINE
  8
0
 10
     49.2000000
 20
      5.3438100
 11
     49.3000000
 21
      5.3376600
0
LINE
  8
0
 10
     49.3000000
 20
      5.3376600
 11
     49.4000000
 21
      5.3315000
0
LINE
  8
0
 10
     49.4000000
 20
      5.3315000
 11
     49.5000000
 21
      5.3253100
0
LINE
  8
0
 10
     49.5000000
 20
      5.3253100
 11
     49.6000000
 21
      5.3190900
0
LINE
  8
0
 10
     49.6000000
 20
      5.3190900
 11
     49.7000000
 21
      5.3128600
0
LINE
  8
0
 10
     49.7000000
 20
      5.3128600
 11
     49.8000000
 21
      5.3066000
0
LINE
  8
0
 10
     49.8000000
 20
      5.3066000
 11
     49.9000000
 21
      5.3003300
0
LINE
  8
0
 10
     49.9000000
 20
      5.3003300
 11
     50.0000000
 21
      5.2940300
0
LINE
  8
0
 10
     50.0000000
 20
      5.2940300
 11
     50.1000000
 21
      5.2877000
0
LINE
  8
0
 10
     50.1000000
 20
      5.2877000
 11
     50.2000000
 21
      5.2813600
0
LINE
  8
0
 10
     50.2000000
 20
      5.2813600
 11
     50.3000000
 21
      5.2749900
0
LINE
  8
0
 10
     50.3000000
 20
      5.2749900
 11
     50.4000000
 21
      5.2686100
0
LINE
  8
0
 10
     50.4000000
 20
      5.2686100
 11
     50.5000000
 21
      5.2622000
0
LINE
  8
0
 10
     50.5000000
 20
      5.2622000
 11
     50.6000000
 21
      5.2557700
0
LINE
  8
0
 10
     50.6000000
 20
      5.2557700
 11
     50.7000000
 21
      5.2493200
0
LINE
  8
0
 10
     50.7000000
 20
      5.2493200
 11
     50.8000000
 21
      5.2428400
0
LINE
  8
0
 10
     50.8000000
 20
      5.2428400
 11
     50.9000000
 21
      5.2363500
0
LINE
  8
0
 10
     50.9000000
 20
      5.2363500
 11
     51.0000000
 21
      5.2298300
0
LINE
  8
0
 10
     51.0000000
 20
      5.2298300
 11
     51.1000000
 21
      5.2232900
0
LINE
  8
0
 10
     51.1000000
 20
      5.2232900
 11
     51.2000000
 21
      5.2167400
0
LINE
  8
0
 10
     51.2000000
 20
      5.2167400
 11
     51.3000000
 21
      5.2101600
0
LINE
  8
0
 10
     51.3000000
 20
      5.2101600
 11
     51.4000000
 21
      5.2035600
0
LINE
  8
0
 10
     51.4000000
 20
      5.2035600
 11
     51.5000000
 21
      5.1969300
0
LINE
  8
0
 10
     51.5000000
 20
      5.1969300
 11
     51.6000000
 21
      5.1902900
0
LINE
  8
0
 10
     51.6000000
 20
      5.1902900
 11
     51.7000000
 21
      5.1836300
0
LINE
  8
0
 10
     51.7000000
 20
      5.1836300
 11
     51.8000000
 21
      5.1769400
0
LINE
  8
0
 10
     51.8000000
 20
      5.1769400
 11
     51.9000000
 21
      5.1702400
0
LINE
  8
0
 10
     51.9000000
 20
      5.1702400
 11
     52.0000000
 21
      5.1635100
0
LINE
  8
0
 10
     52.0000000
 20
      5.1635100
 11
     52.1000000
 21
      5.1567700
0
LINE
  8
0
 10
     52.1000000
 20
      5.1567700
 11
     52.2000000
 21
      5.1500000
0
LINE
  8
0
 10
     52.2000000
 20
      5.1500000
 11
     52.3000000
 21
      5.1432100
0
LINE
  8
0
 10
     52.3000000
 20
      5.1432100
 11
     52.4000000
 21
      5.1364100
0
LINE
  8
0
 10
     52.4000000
 20
      5.1364100
 11
     52.5000000
 21
      5.1295800
0
LINE
  8
0
 10
     52.5000000
 20
      5.1295800
 11
     52.6000000
 21
      5.1227300
0
LINE
  8
0
 10
     52.6000000
 20
      5.1227300
 11
     52.7000000
 21
      5.1158600
0
LINE
  8
0
 10
     52.7000000
 20
      5.1158600
 11
     52.8000000
 21
      5.1089700
0
LINE
  8
0
 10
     52.8000000
 20
      5.1089700
 11
     52.9000000
 21
      5.1020600
0
LINE
  8
0
 10
     52.9000000
 20
      5.1020600
 11
     53.0000000
 21
      5.0951400
0
LINE
  8
0
 10
     53.0000000
 20
      5.0951400
 11
     53.1000000
 21
      5.0881900
0
LINE
  8
0
 10
     53.1000000
 20
      5.0881900
 11
     53.2000000
 21
      5.0812200
0
LINE
  8
0
 10
     53.2000000
 20
      5.0812200
 11
     53.3000000
 21
      5.0742300
0
LINE
  8
0
 10
     53.3000000
 20
      5.0742300
 11
     53.4000000
 21
      5.0672200
0
LINE
  8
0
 10
     53.4000000
 20
      5.0672200
 11
     53.5000000
 21
      5.0601900
0
LINE
  8
0
 10
     53.5000000
 20
      5.0601900
 11
     53.6000000
 21
      5.0531400
0
LINE
  8
0
 10
     53.6000000
 20
      5.0531400
 11
     53.7000000
 21
      5.0460800
0
LINE
  8
0
 10
     53.7000000
 20
      5.0460800
 11
     53.8000000
 21
      5.0389900
0
LINE
  8
0
 10
     53.8000000
 20
      5.0389900
 11
     53.9000000
 21
      5.0318800
0
LINE
  8
0
 10
     53.9000000
 20
      5.0318800
 11
     54.0000000
 21
      5.0247500
0
LINE
  8
0
 10
     54.0000000
 20
      5.0247500
 11
     54.1000000
 21
      5.0176100
0
LINE
  8
0
 10
     54.1000000
 20
      5.0176100
 11
     54.2000000
 21
      5.0104400
0
LINE
  8
0
 10
     54.2000000
 20
      5.0104400
 11
     54.3000000
 21
      5.0032600
0
LINE
  8
0
 10
     54.3000000
 20
      5.0032600
 11
     54.4000000
 21
      4.9960500
0
LINE
  8
0
 10
     54.4000000
 20
      4.9960500
 11
     54.5000000
 21
      4.9888300
0
LINE
  8
0
 10
     54.5000000
 20
      4.9888300
 11
     54.6000000
 21
      4.9815900
0
LINE
  8
0
 10
     54.6000000
 20
      4.9815900
 11
     54.7000000
 21
      4.9743300
0
LINE
  8
0
 10
     54.7000000
 20
      4.9743300
 11
     54.8000000
 21
      4.9670500
0
LINE
  8
0
 10
     54.8000000
 20
      4.9670500
 11
     54.9000000
 21
      4.9597500
0
LINE
  8
0
 10
     54.9000000
 20
      4.9597500
 11
     55.0000000
 21
      4.9524300
0
LINE
  8
0
 10
     55.0000000
 20
      4.9524300
 11
     55.1000000
 21
      4.9450900
0
LINE
  8
0
 10
     55.1000000
 20
      4.9450900
 11
     55.2000000
 21
      4.9377300
0
LINE
  8
0
 10
     55.2000000
 20
      4.9377300
 11
     55.3000000
 21
      4.9303600
0
LINE
  8
0
 10
     55.3000000
 20
      4.9303600
 11
     55.4000000
 21
      4.9229600
0
LINE
  8
0
 10
     55.4000000
 20
      4.9229600
 11
     55.5000000
 21
      4.9155500
0
LINE
  8
0
 10
     55.5000000
 20
      4.9155500
 11
     55.6000000
 21
      4.9081200
0
LINE
  8
0
 10
     55.6000000
 20
      4.9081200
 11
     55.7000000
 21
      4.9006700
0
LINE
  8
0
 10
     55.7000000
 20
      4.9006700
 11
     55.8000000
 21
      4.8932000
0
LINE
  8
0
 10
     55.8000000
 20
      4.8932000
 11
     55.9000000
 21
      4.8857100
0
LINE
  8
0
 10
     55.9000000
 20
      4.8857100
 11
     56.0000000
 21
      4.8782100
0
LINE
  8
0
 10
     56.0000000
 20
      4.8782100
 11
     56.1000000
 21
      4.8706800
0
LINE
  8
0
 10
     56.1000000
 20
      4.8706800
 11
     56.2000000
 21
      4.8631400
0
LINE
  8
0
 10
     56.2000000
 20
      4.8631400
 11
     56.3000000
 21
      4.8555800
0
LINE
  8
0
 10
     56.3000000
 20
      4.8555800
 11
     56.4000000
 21
      4.8480000
0
LINE
  8
0
 10
     56.4000000
 20
      4.8480000
 11
     56.5000000
 21
      4.8404000
0
LINE
  8
0
 10
     56.5000000
 20
      4.8404000
 11
     56.6000000
 21
      4.8327900
0
LINE
  8
0
 10
     56.6000000
 20
      4.8327900
 11
     56.7000000
 21
      4.8251600
0
LINE
  8
0
 10
     56.7000000
 20
      4.8251600
 11
     56.8000000
 21
      4.8175000
0
LINE
  8
0
 10
     56.8000000
 20
      4.8175000
 11
     56.9000000
 21
      4.8098300
0
LINE
  8
0
 10
     56.9000000
 20
      4.8098300
 11
     57.0000000
 21
      4.8021500
0
LINE
  8
0
 10
     57.0000000
 20
      4.8021500
 11
     57.1000000
 21
      4.7944400
0
LINE
  8
0
 10
     57.1000000
 20
      4.7944400
 11
     57.2000000
 21
      4.7867200
0
LINE
  8
0
 10
     57.2000000
 20
      4.7867200
 11
     57.3000000
 21
      4.7789800
0
LINE
  8
0
 10
     57.3000000
 20
      4.7789800
 11
     57.4000000
 21
      4.7712200
0
LINE
  8
0
 10
     57.4000000
 20
      4.7712200
 11
     57.5000000
 21
      4.7634400
0
LINE
  8
0
 10
     57.5000000
 20
      4.7634400
 11
     57.6000000
 21
      4.7556500
0
LINE
  8
0
 10
     57.6000000
 20
      4.7556500
 11
     57.7000000
 21
      4.7478300
0
LINE
  8
0
 10
     57.7000000
 20
      4.7478300
 11
     57.8000000
 21
      4.7400000
0
LINE
  8
0
 10
     57.8000000
 20
      4.7400000
 11
     57.9000000
 21
      4.7321600
0
LINE
  8
0
 10
     57.9000000
 20
      4.7321600
 11
     58.0000000
 21
      4.7242900
0
LINE
  8
0
 10
     58.0000000
 20
      4.7242900
 11
     58.1000000
 21
      4.7164100
0
LINE
  8
0
 10
     58.1000000
 20
      4.7164100
 11
     58.2000000
 21
      4.7085100
0
LINE
  8
0
 10
     58.2000000
 20
      4.7085100
 11
     58.3000000
 21
      4.7005900
0
LINE
  8
0
 10
     58.3000000
 20
      4.7005900
 11
     58.4000000
 21
      4.6926600
0
LINE
  8
0
 10
     58.4000000
 20
      4.6926600
 11
     58.5000000
 21
      4.6847000
0
LINE
  8
0
 10
     58.5000000
 20
      4.6847000
 11
     58.6000000
 21
      4.6767300
0
LINE
  8
0
 10
     58.6000000
 20
      4.6767300
 11
     58.7000000
 21
      4.6687500
0
LINE
  8
0
 10
     58.7000000
 20
      4.6687500
 11
     58.8000000
 21
      4.6607400
0
LINE
  8
0
 10
     58.8000000
 20
      4.6607400
 11
     58.9000000
 21
      4.6527200
0
LINE
  8
0
 10
     58.9000000
 20
      4.6527200
 11
     59.0000000
 21
      4.6446800
0
LINE
  8
0
 10
     59.0000000
 20
      4.6446800
 11
     59.1000000
 21
      4.6366300
0
LINE
  8
0
 10
     59.1000000
 20
      4.6366300
 11
     59.2000000
 21
      4.6285600
0
LINE
  8
0
 10
     59.2000000
 20
      4.6285600
 11
     59.3000000
 21
      4.6204700
0
LINE
  8
0
 10
     59.3000000
 20
      4.6204700
 11
     59.4000000
 21
      4.6123600
0
LINE
  8
0
 10
     59.4000000
 20
      4.6123600
 11
     59.5000000
 21
      4.6042400
0
LINE
  8
0
 10
     59.5000000
 20
      4.6042400
 11
     59.6000000
 21
      4.5961000
0
LINE
  8
0
 10
     59.6000000
 20
      4.5961000
 11
     59.7000000
 21
      4.5879400
0
LINE
  8
0
 10
     59.7000000
 20
      4.5879400
 11
     59.8000000
 21
      4.5797700
0
LINE
  8
0
 10
     59.8000000
 20
      4.5797700
 11
     59.9000000
 21
      4.5715800
0
LINE
  8
0
 10
     59.9000000
 20
      4.5715800
 11
     60.0000000
 21
      4.5633700
0
LINE
  8
0
 10
     60.0000000
 20
      4.5633700
 11
     60.1000000
 21
      4.5551500
0
LINE
  8
0
 10
     60.1000000
 20
      4.5551500
 11
     60.2000000
 21
      4.5469100
0
LINE
  8
0
 10
     60.2000000
 20
      4.5469100
 11
     60.3000000
 21
      4.5386500
0
LINE
  8
0
 10
     60.3000000
 20
      4.5386500
 11
     60.4000000
 21
      4.5303800
0
LINE
  8
0
 10
     60.4000000
 20
      4.5303800
 11
     60.5000000
 21
      4.5220800
0
LINE
  8
0
 10
     60.5000000
 20
      4.5220800
 11
     60.6000000
 21
      4.5137800
0
LINE
  8
0
 10
     60.6000000
 20
      4.5137800
 11
     60.7000000
 21
      4.5054600
0
LINE
  8
0
 10
     60.7000000
 20
      4.5054600
 11
     60.8000000
 21
      4.4971200
0
LINE
  8
0
 10
     60.8000000
 20
      4.4971200
 11
     60.9000000
 21
      4.4887600
0
LINE
  8
0
 10
     60.9000000
 20
      4.4887600
 11
     61.0000000
 21
      4.4803900
0
LINE
  8
0
 10
     61.0000000
 20
      4.4803900
 11
     61.1000000
 21
      4.4720000
0
LINE
  8
0
 10
     61.1000000
 20
      4.4720000
 11
     61.2000000
 21
      4.4635900
0
LINE
  8
0
 10
     61.2000000
 20
      4.4635900
 11
     61.3000000
 21
      4.4551700
0
LINE
  8
0
 10
     61.3000000
 20
      4.4551700
 11
     61.4000000
 21
      4.4467400
0
LINE
  8
0
 10
     61.4000000
 20
      4.4467400
 11
     61.5000000
 21
      4.4382800
0
LINE
  8
0
 10
     61.5000000
 20
      4.4382800
 11
     61.6000000
 21
      4.4298100
0
LINE
  8
0
 10
     61.6000000
 20
      4.4298100
 11
     61.7000000
 21
      4.4213300
0
LINE
  8
0
 10
     61.7000000
 20
      4.4213300
 11
     61.8000000
 21
      4.4128300
0
LINE
  8
0
 10
     61.8000000
 20
      4.4128300
 11
     61.9000000
 21
      4.4043100
0
LINE
  8
0
 10
     61.9000000
 20
      4.4043100
 11
     62.0000000
 21
      4.3957800
0
LINE
  8
0
 10
     62.0000000
 20
      4.3957800
 11
     62.1000000
 21
      4.3872300
0
LINE
  8
0
 10
     62.1000000
 20
      4.3872300
 11
     62.2000000
 21
      4.3786600
0
LINE
  8
0
 10
     62.2000000
 20
      4.3786600
 11
     62.3000000
 21
      4.3700800
0
LINE
  8
0
 10
     62.3000000
 20
      4.3700800
 11
     62.4000000
 21
      4.3614800
0
LINE
  8
0
 10
     62.4000000
 20
      4.3614800
 11
     62.5000000
 21
      4.3528700
0
LINE
  8
0
 10
     62.5000000
 20
      4.3528700
 11
     62.6000000
 21
      4.3442400
0
LINE
  8
0
 10
     62.6000000
 20
      4.3442400
 11
     62.7000000
 21
      4.3356000
0
LINE
  8
0
 10
     62.7000000
 20
      4.3356000
 11
     62.8000000
 21
      4.3269400
0
LINE
  8
0
 10
     62.8000000
 20
      4.3269400
 11
     62.9000000
 21
      4.3182600
0
LINE
  8
0
 10
     62.9000000
 20
      4.3182600
 11
     63.0000000
 21
      4.3095700
0
LINE
  8
0
 10
     63.0000000
 20
      4.3095700
 11
     63.1000000
 21
      4.3008600
0
LINE
  8
0
 10
     63.1000000
 20
      4.3008600
 11
     63.2000000
 21
      4.2921400
0
LINE
  8
0
 10
     63.2000000
 20
      4.2921400
 11
     63.3000000
 21
      4.2834000
0
LINE
  8
0
 10
     63.3000000
 20
      4.2834000
 11
     63.4000000
 21
      4.2746500
0
LINE
  8
0
 10
     63.4000000
 20
      4.2746500
 11
     63.5000000
 21
      4.2658800
0
LINE
  8
0
 10
     63.5000000
 20
      4.2658800
 11
     63.6000000
 21
      4.2570900
0
LINE
  8
0
 10
     63.6000000
 20
      4.2570900
 11
     63.7000000
 21
      4.2482900
0
LINE
  8
0
 10
     63.7000000
 20
      4.2482900
 11
     63.8000000
 21
      4.2394800
0
LINE
  8
0
 10
     63.8000000
 20
      4.2394800
 11
     63.9000000
 21
      4.2306500
0
LINE
  8
0
 10
     63.9000000
 20
      4.2306500
 11
     64.0000000
 21
      4.2218000
0
LINE
  8
0
 10
     64.0000000
 20
      4.2218000
 11
     64.1000000
 21
      4.2129400
0
LINE
  8
0
 10
     64.1000000
 20
      4.2129400
 11
     64.2000000
 21
      4.2040600
0
LINE
  8
0
 10
     64.2000000
 20
      4.2040600
 11
     64.3000000
 21
      4.1951700
0
LINE
  8
0
 10
     64.3000000
 20
      4.1951700
 11
     64.4000000
 21
      4.1862600
0
LINE
  8
0
 10
     64.4000000
 20
      4.1862600
 11
     64.5000000
 21
      4.1773400
0
LINE
  8
0
 10
     64.5000000
 20
      4.1773400
 11
     64.6000100
 21
      4.1684000
0
LINE
  8
0
 10
     64.6000100
 20
      4.1684000
 11
     64.7000000
 21
      4.1594500
0
LINE
  8
0
 10
     64.7000000
 20
      4.1594500
 11
     64.8000000
 21
      4.1504800
0
LINE
  8
0
 10
     64.8000000
 20
      4.1504800
 11
     64.9000000
 21
      4.1414900
0
LINE
  8
0
 10
     64.9000000
 20
      4.1414900
 11
     65.0000000
 21
      4.1325000
0
LINE
  8
0
 10
     65.0000000
 20
      4.1325000
 11
     65.1000100
 21
      4.1234800
0
LINE
  8
0
 10
     65.1000100
 20
      4.1234800
 11
     65.2000000
 21
      4.1144500
0
LINE
  8
0
 10
     65.2000000
 20
      4.1144500
 11
     65.3000000
 21
      4.1054100
0
LINE
  8
0
 10
     65.3000000
 20
      4.1054100
 11
     65.4000000
 21
      4.0963500
0
LINE
  8
0
 10
     65.4000000
 20
      4.0963500
 11
     65.5000000
 21
      4.0872800
0
LINE
  8
0
 10
     65.5000000
 20
      4.0872800
 11
     65.6000000
 21
      4.0781900
0
LINE
  8
0
 10
     65.6000000
 20
      4.0781900
 11
     65.7000000
 21
      4.0690900
0
LINE
  8
0
 10
     65.7000000
 20
      4.0690900
 11
     65.8000000
 21
      4.0599700
0
LINE
  8
0
 10
     65.8000000
 20
      4.0599700
 11
     65.9000000
 21
      4.0508400
0
LINE
  8
0
 10
     65.9000000
 20
      4.0508400
 11
     66.0000000
 21
      4.0416900
0
LINE
  8
0
 10
     66.0000000
 20
      4.0416900
 11
     66.1000000
 21
      4.0325300
0
LINE
  8
0
 10
     66.1000000
 20
      4.0325300
 11
     66.2000000
 21
      4.0233500
0
LINE
  8
0
 10
     66.2000000
 20
      4.0233500
 11
     66.3000000
 21
      4.0141600
0
LINE
  8
0
 10
     66.3000000
 20
      4.0141600
 11
     66.3999900
 21
      4.0049500
0
LINE
  8
0
 10
     66.3999900
 20
      4.0049500
 11
     66.5000000
 21
      3.9957300
0
LINE
  8
0
 10
     66.5000000
 20
      3.9957300
 11
     66.6000000
 21
      3.9865000
0
LINE
  8
0
 10
     66.6000000
 20
      3.9865000
 11
     66.7000000
 21
      3.9772400
0
LINE
  8
0
 10
     66.7000000
 20
      3.9772400
 11
     66.8000000
 21
      3.9679800
0
LINE
  8
0
 10
     66.8000000
 20
      3.9679800
 11
     66.9000000
 21
      3.9587000
0
LINE
  8
0
 10
     66.9000000
 20
      3.9587000
 11
     67.0000000
 21
      3.9494100
0
LINE
  8
0
 10
     67.0000000
 20
      3.9494100
 11
     67.1000000
 21
      3.9401000
0
LINE
  8
0
 10
     67.1000000
 20
      3.9401000
 11
     67.2000000
 21
      3.9307700
0
LINE
  8
0
 10
     67.2000000
 20
      3.9307700
 11
     67.3000000
 21
      3.9214400
0
LINE
  8
0
 10
     67.3000000
 20
      3.9214400
 11
     67.4000000
 21
      3.9120800
0
LINE
  8
0
 10
     67.4000000
 20
      3.9120800
 11
     67.5000000
 21
      3.9027200
0
LINE
  8
0
 10
     67.5000000
 20
      3.9027200
 11
     67.6000000
 21
      3.8933300
0
LINE
  8
0
 10
     67.6000000
 20
      3.8933300
 11
     67.7000000
 21
      3.8839400
0
LINE
  8
0
 10
     67.7000000
 20
      3.8839400
 11
     67.8000000
 21
      3.8745300
0
LINE
  8
0
 10
     67.8000000
 20
      3.8745300
 11
     67.9000000
 21
      3.8651000
0
LINE
  8
0
 10
     67.9000000
 20
      3.8651000
 11
     68.0000000
 21
      3.8556700
0
LINE
  8
0
 10
     68.0000000
 20
      3.8556700
 11
     68.1000000
 21
      3.8462100
0
LINE
  8
0
 10
     68.1000000
 20
      3.8462100
 11
     68.2000000
 21
      3.8367500
0
LINE
  8
0
 10
     68.2000000
 20
      3.8367500
 11
     68.3000000
 21
      3.8272600
0
LINE
  8
0
 10
     68.3000000
 20
      3.8272600
 11
     68.4000000
 21
      3.8177700
0
LINE
  8
0
 10
     68.4000000
 20
      3.8177700
 11
     68.5000000
 21
      3.8082600
0
LINE
  8
0
 10
     68.5000000
 20
      3.8082600
 11
     68.6000000
 21
      3.7987300
0
LINE
  8
0
 10
     68.6000000
 20
      3.7987300
 11
     68.7000000
 21
      3.7891900
0
LINE
  8
0
 10
     68.7000000
 20
      3.7891900
 11
     68.8000000
 21
      3.7796400
0
LINE
  8
0
 10
     68.8000000
 20
      3.7796400
 11
     68.9000000
 21
      3.7700700
0
LINE
  8
0
 10
     68.9000000
 20
      3.7700700
 11
     69.0000000
 21
      3.7604900
0
LINE
  8
0
 10
     69.0000000
 20
      3.7604900
 11
     69.1000000
 21
      3.7509000
0
LINE
  8
0
 10
     69.1000000
 20
      3.7509000
 11
     69.2000000
 21
      3.7412900
0
LINE
  8
0
 10
     69.2000000
 20
      3.7412900
 11
     69.3000000
 21
      3.7316600
0
LINE
  8
0
 10
     69.3000000
 20
      3.7316600
 11
     69.4000000
 21
      3.7220300
0
LINE
  8
0
 10
     69.4000000
 20
      3.7220300
 11
     69.5000000
 21
      3.7123800
0
LINE
  8
0
 10
     69.5000000
 20
      3.7123800
 11
     69.6000000
 21
      3.7027100
0
LINE
  8
0
 10
     69.6000000
 20
      3.7027100
 11
     69.7000000
 21
      3.6930300
0
LINE
  8
0
 10
     69.7000000
 20
      3.6930300
 11
     69.8000000
 21
      3.6833400
0
LINE
  8
0
 10
     69.8000000
 20
      3.6833400
 11
     69.9000000
 21
      3.6736300
0
LINE
  8
0
 10
     69.9000000
 20
      3.6736300
 11
     70.0000000
 21
      3.6639100
0
LINE
  8
0
 10
     70.0000000
 20
      3.6639100
 11
     70.1000000
 21
      3.6541700
0
LINE
  8
0
 10
     70.1000000
 20
      3.6541700
 11
     70.2000000
 21
      3.6444200
0
LINE
  8
0
 10
     70.2000000
 20
      3.6444200
 11
     70.3000000
 21
      3.6346600
0
LINE
  8
0
 10
     70.3000000
 20
      3.6346600
 11
     70.4000000
 21
      3.6248800
0
LINE
  8
0
 10
     70.4000000
 20
      3.6248800
 11
     70.5000000
 21
      3.6150900
0
LINE
  8
0
 10
     70.5000000
 20
      3.6150900
 11
     70.6000000
 21
      3.6052800
0
LINE
  8
0
 10
     70.6000000
 20
      3.6052800
 11
     70.7000000
 21
      3.5954600
0
LINE
  8
0
 10
     70.7000000
 20
      3.5954600
 11
     70.8000000
 21
      3.5856300
0
LINE
  8
0
 10
     70.8000000
 20
      3.5856300
 11
     70.9000000
 21
      3.5757900
0
LINE
  8
0
 10
     70.9000000
 20
      3.5757900
 11
     71.0000000
 21
      3.5659200
0
LINE
  8
0
 10
     71.0000000
 20
      3.5659200
 11
     71.1000100
 21
      3.5560500
0
LINE
  8
0
 10
     71.1000100
 20
      3.5560500
 11
     71.2000000
 21
      3.5461600
0
LINE
  8
0
 10
     71.2000000
 20
      3.5461600
 11
     71.3000000
 21
      3.5362600
0
LINE
  8
0
 10
     71.3000000
 20
      3.5362600
 11
     71.4000000
 21
      3.5263400
0
LINE
  8
0
 10
     71.4000000
 20
      3.5263400
 11
     71.5000000
 21
      3.5164100
0
LINE
  8
0
 10
     71.5000000
 20
      3.5164100
 11
     71.6000000
 21
      3.5064700
0
LINE
  8
0
 10
     71.6000000
 20
      3.5064700
 11
     71.7000000
 21
      3.4965100
0
LINE
  8
0
 10
     71.7000000
 20
      3.4965100
 11
     71.8000000
 21
      3.4865400
0
LINE
  8
0
 10
     71.8000000
 20
      3.4865400
 11
     71.9000000
 21
      3.4765600
0
LINE
  8
0
 10
     71.9000000
 20
      3.4765600
 11
     72.0000000
 21
      3.4665600
0
LINE
  8
0
 10
     72.0000000
 20
      3.4665600
 11
     72.1000000
 21
      3.4565500
0
LINE
  8
0
 10
     72.1000000
 20
      3.4565500
 11
     72.2000000
 21
      3.4465200
0
LINE
  8
0
 10
     72.2000000
 20
      3.4465200
 11
     72.3000000
 21
      3.4364800
0
LINE
  8
0
 10
     72.3000000
 20
      3.4364800
 11
     72.3999900
 21
      3.4264300
0
LINE
  8
0
 10
     72.3999900
 20
      3.4264300
 11
     72.5000000
 21
      3.4163700
0
LINE
  8
0
 10
     72.5000000
 20
      3.4163700
 11
     72.6000000
 21
      3.4062900
0
LINE
  8
0
 10
     72.6000000
 20
      3.4062900
 11
     72.7000000
 21
      3.3961900
0
LINE
  8
0
 10
     72.7000000
 20
      3.3961900
 11
     72.8000000
 21
      3.3860800
0
LINE
  8
0
 10
     72.8000000
 20
      3.3860800
 11
     72.8999900
 21
      3.3759600
0
LINE
  8
0
 10
     72.8999900
 20
      3.3759600
 11
     73.0000000
 21
      3.3658300
0
LINE
  8
0
 10
     73.0000000
 20
      3.3658300
 11
     73.1000000
 21
      3.3556800
0
LINE
  8
0
 10
     73.1000000
 20
      3.3556800
 11
     73.2000000
 21
      3.3455200
0
LINE
  8
0
 10
     73.2000000
 20
      3.3455200
 11
     73.3000000
 21
      3.3353500
0
LINE
  8
0
 10
     73.3000000
 20
      3.3353500
 11
     73.4000000
 21
      3.3251600
0
LINE
  8
0
 10
     73.4000000
 20
      3.3251600
 11
     73.5000000
 21
      3.3149500
0
LINE
  8
0
 10
     73.5000000
 20
      3.3149500
 11
     73.6000000
 21
      3.3047400
0
LINE
  8
0
 10
     73.6000000
 20
      3.3047400
 11
     73.7000000
 21
      3.2945100
0
LINE
  8
0
 10
     73.7000000
 20
      3.2945100
 11
     73.8000000
 21
      3.2842700
0
LINE
  8
0
 10
     73.8000000
 20
      3.2842700
 11
     73.9000000
 21
      3.2740100
0
LINE
  8
0
 10
     73.9000000
 20
      3.2740100
 11
     74.0000000
 21
      3.2637400
0
LINE
  8
0
 10
     74.0000000
 20
      3.2637400
 11
     74.1000000
 21
      3.2534600
0
LINE
  8
0
 10
     74.1000000
 20
      3.2534600
 11
     74.2000000
 21
      3.2431600
0
LINE
  8
0
 10
     74.2000000
 20
      3.2431600
 11
     74.3000000
 21
      3.2328500
0
LINE
  8
0
 10
     74.3000000
 20
      3.2328500
 11
     74.4000000
 21
      3.2225300
0
LINE
  8
0
 10
     74.4000000
 20
      3.2225300
 11
     74.5000000
 21
      3.2121900
0
LINE
  8
0
 10
     74.5000000
 20
      3.2121900
 11
     74.6000000
 21
      3.2018400
0
LINE
  8
0
 10
     74.6000000
 20
      3.2018400
 11
     74.7000000
 21
      3.1914800
0
LINE
  8
0
 10
     74.7000000
 20
      3.1914800
 11
     74.8000000
 21
      3.1811000
0
LINE
  8
0
 10
     74.8000000
 20
      3.1811000
 11
     74.9000000
 21
      3.1707100
0
LINE
  8
0
 10
     74.9000000
 20
      3.1707100
 11
     75.0000000
 21
      3.1603100
0
LINE
  8
0
 10
     75.0000000
 20
      3.1603100
 11
     75.1000000
 21
      3.1498900
0
LINE
  8
0
 10
     75.1000000
 20
      3.1498900
 11
     75.2000000
 21
      3.1394600
0
LINE
  8
0
 10
     75.2000000
 20
      3.1394600
 11
     75.3000000
 21
      3.1290100
0
LINE
  8
0
 10
     75.3000000
 20
      3.1290100
 11
     75.4000000
 21
      3.1185600
0
LINE
  8
0
 10
     75.4000000
 20
      3.1185600
 11
     75.5000000
 21
      3.1080900
0
LINE
  8
0
 10
     75.5000000
 20
      3.1080900
 11
     75.6000000
 21
      3.0976000
0
LINE
  8
0
 10
     75.6000000
 20
      3.0976000
 11
     75.7000000
 21
      3.0871000
0
LINE
  8
0
 10
     75.7000000
 20
      3.0871000
 11
     75.8000000
 21
      3.0765900
0
LINE
  8
0
 10
     75.8000000
 20
      3.0765900
 11
     75.9000000
 21
      3.0660700
0
LINE
  8
0
 10
     75.9000000
 20
      3.0660700
 11
     76.0000000
 21
      3.0555300
0
LINE
  8
0
 10
     76.0000000
 20
      3.0555300
 11
     76.1000000
 21
      3.0449800
0
LINE
  8
0
 10
     76.1000000
 20
      3.0449800
 11
     76.2000000
 21
      3.0344200
0
LINE
  8
0
 10
     76.2000000
 20
      3.0344200
 11
     76.3000000
 21
      3.0238400
0
LINE
  8
0
 10
     76.3000000
 20
      3.0238400
 11
     76.4000000
 21
      3.0132500
0
LINE
  8
0
 10
     76.4000000
 20
      3.0132500
 11
     76.5000000
 21
      3.0026400
0
LINE
  8
0
 10
     76.5000000
 20
      3.0026400
 11
     76.6000000
 21
      2.9920300
0
LINE
  8
0
 10
     76.6000000
 20
      2.9920300
 11
     76.7000000
 21
      2.9814000
0
LINE
  8
0
 10
     76.7000000
 20
      2.9814000
 11
     76.8000000
 21
      2.9707500
0
LINE
  8
0
 10
     76.8000000
 20
      2.9707500
 11
     76.9000000
 21
      2.9600900
0
LINE
  8
0
 10
     76.9000000
 20
      2.9600900
 11
     77.0000000
 21
      2.9494200
0
LINE
  8
0
 10
     77.0000000
 20
      2.9494200
 11
     77.1000100
 21
      2.9387400
0
LINE
  8
0
 10
     77.1000100
 20
      2.9387400
 11
     77.2000000
 21
      2.9280400
0
LINE
  8
0
 10
     77.2000000
 20
      2.9280400
 11
     77.3000000
 21
      2.9173300
0
LINE
  8
0
 10
     77.3000000
 20
      2.9173300
 11
     77.4000000
 21
      2.9066100
0
LINE
  8
0
 10
     77.4000000
 20
      2.9066100
 11
     77.5000000
 21
      2.8958700
0
LINE
  8
0
 10
     77.5000000
 20
      2.8958700
 11
     77.6000100
 21
      2.8851200
0
LINE
  8
0
 10
     77.6000100
 20
      2.8851200
 11
     77.7000000
 21
      2.8743600
0
LINE
  8
0
 10
     77.7000000
 20
      2.8743600
 11
     77.8000000
 21
      2.8635800
0
LINE
  8
0
 10
     77.8000000
 20
      2.8635800
 11
     77.9000000
 21
      2.8527900
0
LINE
  8
0
 10
     77.9000000
 20
      2.8527900
 11
     78.0000000
 21
      2.8419800
0
LINE
  8
0
 10
     78.0000000
 20
      2.8419800
 11
     78.1000000
 21
      2.8311700
0
LINE
  8
0
 10
     78.1000000
 20
      2.8311700
 11
     78.2000000
 21
      2.8203400
0
LINE
  8
0
 10
     78.2000000
 20
      2.8203400
 11
     78.3000000
 21
      2.8094900
0
LINE
  8
0
 10
     78.3000000
 20
      2.8094900
 11
     78.4000000
 21
      2.7986400
0
LINE
  8
0
 10
     78.4000000
 20
      2.7986400
 11
     78.5000000
 21
      2.7877700
0
LINE
  8
0
 10
     78.5000000
 20
      2.7877700
 11
     78.6000000
 21
      2.7768800
0
LINE
  8
0
 10
     78.6000000
 20
      2.7768800
 11
     78.7000000
 21
      2.7659900
0
LINE
  8
0
 10
     78.7000000
 20
      2.7659900
 11
     78.8000000
 21
      2.7550800
0
LINE
  8
0
 10
     78.8000000
 20
      2.7550800
 11
     78.8999900
 21
      2.7441500
0
LINE
  8
0
 10
     78.8999900
 20
      2.7441500
 11
     79.0000000
 21
      2.7332200
0
LINE
  8
0
 10
     79.0000000
 20
      2.7332200
 11
     79.1000000
 21
      2.7222700
0
LINE
  8
0
 10
     79.1000000
 20
      2.7222700
 11
     79.2000000
 21
      2.7113000
0
LINE
  8
0
 10
     79.2000000
 20
      2.7113000
 11
     79.3000000
 21
      2.7003300
0
LINE
  8
0
 10
     79.3000000
 20
      2.7003300
 11
     79.4000000
 21
      2.6893400
0
LINE
  8
0
 10
     79.4000000
 20
      2.6893400
 11
     79.5000000
 21
      2.6783300
0
LINE
  8
0
 10
     79.5000000
 20
      2.6783300
 11
     79.6000000
 21
      2.6673200
0
LINE
  8
0
 10
     79.6000000
 20
      2.6673200
 11
     79.7000000
 21
      2.6562900
0
LINE
  8
0
 10
     79.7000000
 20
      2.6562900
 11
     79.8000000
 21
      2.6452400
0
LINE
  8
0
 10
     79.8000000
 20
      2.6452400
 11
     79.9000000
 21
      2.6341900
0
LINE
  8
0
 10
     79.9000000
 20
      2.6341900
 11
     80.0000000
 21
      2.6231200
0
LINE
  8
0
 10
     80.0000000
 20
      2.6231200
 11
     80.1000000
 21
      2.6120400
0
LINE
  8
0
 10
     80.1000000
 20
      2.6120400
 11
     80.2000000
 21
      2.6009400
0
LINE
  8
0
 10
     80.2000000
 20
      2.6009400
 11
     80.3000000
 21
      2.5898300
0
LINE
  8
0
 10
     80.3000000
 20
      2.5898300
 11
     80.4000000
 21
      2.5787100
0
LINE
  8
0
 10
     80.4000000
 20
      2.5787100
 11
     80.5000000
 21
      2.5675700
0
LINE
  8
0
 10
     80.5000000
 20
      2.5675700
 11
     80.6000000
 21
      2.5564200
0
LINE
  8
0
 10
     80.6000000
 20
      2.5564200
 11
     80.7000000
 21
      2.5452600
0
LINE
  8
0
 10
     80.7000000
 20
      2.5452600
 11
     80.8000000
 21
      2.5340800
0
LINE
  8
0
 10
     80.8000000
 20
      2.5340800
 11
     80.9000000
 21
      2.5228900
0
LINE
  8
0
 10
     80.9000000
 20
      2.5228900
 11
     81.0000000
 21
      2.5116900
0
LINE
  8
0
 10
     81.0000000
 20
      2.5116900
 11
     81.1000000
 21
      2.5004700
0
LINE
  8
0
 10
     81.1000000
 20
      2.5004700
 11
     81.2000000
 21
      2.4892400
0
LINE
  8
0
 10
     81.2000000
 20
      2.4892400
 11
     81.3000000
 21
      2.4780000
0
LINE
  8
0
 10
     81.3000000
 20
      2.4780000
 11
     81.4000000
 21
      2.4667500
0
LINE
  8
0
 10
     81.4000000
 20
      2.4667500
 11
     81.5000000
 21
      2.4554800
0
LINE
  8
0
 10
     81.5000000
 20
      2.4554800
 11
     81.6000000
 21
      2.4441900
0
LINE
  8
0
 10
     81.6000000
 20
      2.4441900
 11
     81.7000000
 21
      2.4329000
0
LINE
  8
0
 10
     81.7000000
 20
      2.4329000
 11
     81.8000000
 21
      2.4215900
0
LINE
  8
0
 10
     81.8000000
 20
      2.4215900
 11
     81.9000000
 21
      2.4102600
0
LINE
  8
0
 10
     81.9000000
 20
      2.4102600
 11
     82.0000000
 21
      2.3989300
0
LINE
  8
0
 10
     82.0000000
 20
      2.3989300
 11
     82.1000000
 21
      2.3875800
0
LINE
  8
0
 10
     82.1000000
 20
      2.3875800
 11
     82.2000000
 21
      2.3762100
0
LINE
  8
0
 10
     82.2000000
 20
      2.3762100
 11
     82.3000000
 21
      2.3648400
0
LINE
  8
0
 10
     82.3000000
 20
      2.3648400
 11
     82.4000000
 21
      2.3534500
0
LINE
  8
0
 10
     82.4000000
 20
      2.3534500
 11
     82.5000000
 21
      2.3420400
0
LINE
  8
0
 10
     82.5000000
 20
      2.3420400
 11
     82.6000000
 21
      2.3306300
0
LINE
  8
0
 10
     82.6000000
 20
      2.3306300
 11
     82.7000000
 21
      2.3192000
0
LINE
  8
0
 10
     82.7000000
 20
      2.3192000
 11
     82.8000000
 21
      2.3077500
0
LINE
  8
0
 10
     82.8000000
 20
      2.3077500
 11
     82.9000000
 21
      2.2962900
0
LINE
  8
0
 10
     82.9000000
 20
      2.2962900
 11
     83.0000000
 21
      2.2848200
0
LINE
  8
0
 10
     83.0000000
 20
      2.2848200
 11
     83.1000000
 21
      2.2733400
0
LINE
  8
0
 10
     83.1000000
 20
      2.2733400
 11
     83.2000000
 21
      2.2618400
0
LINE
  8
0
 10
     83.2000000
 20
      2.2618400
 11
     83.3000000
 21
      2.2503300
0
LINE
  8
0
 10
     83.3000000
 20
      2.2503300
 11
     83.4000000
 21
      2.2388100
0
LINE
  8
0
 10
     83.4000000
 20
      2.2388100
 11
     83.5000000
 21
      2.2272700
0
LINE
  8
0
 10
     83.5000000
 20
      2.2272700
 11
     83.6000100
 21
      2.2157100
0
LINE
  8
0
 10
     83.6000100
 20
      2.2157100
 11
     83.7000000
 21
      2.2041500
0
LINE
  8
0
 10
     83.7000000
 20
      2.2041500
 11
     83.8000000
 21
      2.1925700
0
LINE
  8
0
 10
     83.8000000
 20
      2.1925700
 11
     83.9000000
 21
      2.1809800
0
LINE
  8
0
 10
     83.9000000
 20
      2.1809800
 11
     84.0000000
 21
      2.1693700
0
LINE
  8
0
 10
     84.0000000
 20
      2.1693700
 11
     84.1000000
 21
      2.1577500
0
LINE
  8
0
 10
     84.1000000
 20
      2.1577500
 11
     84.2000000
 21
      2.1461200
0
LINE
  8
0
 10
     84.2000000
 20
      2.1461200
 11
     84.3000000
 21
      2.1344700
0
LINE
  8
0
 10
     84.3000000
 20
      2.1344700
 11
     84.4000000
 21
      2.1228100
0
LINE
  8
0
 10
     84.4000000
 20
      2.1228100
 11
     84.5000000
 21
      2.1111400
0
LINE
  8
0
 10
     84.5000000
 20
      2.1111400
 11
     84.6000000
 21
      2.0994500
0
LINE
  8
0
 10
     84.6000000
 20
      2.0994500
 11
     84.7000000
 21
      2.0877500
0
LINE
  8
0
 10
     84.7000000
 20
      2.0877500
 11
     84.8000000
 21
      2.0760300
0
LINE
  8
0
 10
     84.8000000
 20
      2.0760300
 11
     84.8999900
 21
      2.0643100
0
LINE
  8
0
 10
     84.8999900
 20
      2.0643100
 11
     85.0000000
 21
      2.0525600
0
LINE
  8
0
 10
     85.0000000
 20
      2.0525600
 11
     85.1000000
 21
      2.0408100
0
LINE
  8
0
 10
     85.1000000
 20
      2.0408100
 11
     85.2000000
 21
      2.0290400
0
LINE
  8
0
 10
     85.2000000
 20
      2.0290400
 11
     85.3000000
 21
      2.0172500
0
LINE
  8
0
 10
     85.3000000
 20
      2.0172500
 11
     85.3999900
 21
      2.0054600
0
LINE
  8
0
 10
     85.3999900
 20
      2.0054600
 11
     85.5000000
 21
      1.9936500
0
LINE
  8
0
 10
     85.5000000
 20
      1.9936500
 11
     85.6000000
 21
      1.9818200
0
LINE
  8
0
 10
     85.6000000
 20
      1.9818200
 11
     85.7000000
 21
      1.9699800
0
LINE
  8
0
 10
     85.7000000
 20
      1.9699800
 11
     85.8000000
 21
      1.9581300
0
LINE
  8
0
 10
     85.8000000
 20
      1.9581300
 11
     85.9000000
 21
      1.9462700
0
LINE
  8
0
 10
     85.9000000
 20
      1.9462700
 11
     86.0000000
 21
      1.9343900
0
LINE
  8
0
 10
     86.0000000
 20
      1.9343900
 11
     86.1000000
 21
      1.9224900
0
LINE
  8
0
 10
     86.1000000
 20
      1.9224900
 11
     86.2000000
 21
      1.9105900
0
LINE
  8
0
 10
     86.2000000
 20
      1.9105900
 11
     86.3000000
 21
      1.8986700
0
LINE
  8
0
 10
     86.3000000
 20
      1.8986700
 11
     86.4000000
 21
      1.8867300
0
LINE
  8
0
 10
     86.4000000
 20
      1.8867300
 11
     86.5000000
 21
      1.8747800
0
LINE
  8
0
 10
     86.5000000
 20
      1.8747800
 11
     86.6000000
 21
      1.8628200
0
LINE
  8
0
 10
     86.6000000
 20
      1.8628200
 11
     86.7000000
 21
      1.8508400
0
LINE
  8
0
 10
     86.7000000
 20
      1.8508400
 11
     86.8000000
 21
      1.8388500
0
LINE
  8
0
 10
     86.8000000
 20
      1.8388500
 11
     86.9000000
 21
      1.8268500
0
LINE
  8
0
 10
     86.9000000
 20
      1.8268500
 11
     87.0000000
 21
      1.8148300
0
LINE
  8
0
 10
     87.0000000
 20
      1.8148300
 11
     87.1000000
 21
      1.8028000
0
LINE
  8
0
 10
     87.1000000
 20
      1.8028000
 11
     87.2000000
 21
      1.7907500
0
LINE
  8
0
 10
     87.2000000
 20
      1.7907500
 11
     87.3000000
 21
      1.7786900
0
LINE
  8
0
 10
     87.3000000
 20
      1.7786900
 11
     87.4000000
 21
      1.7666200
0
LINE
  8
0
 10
     87.4000000
 20
      1.7666200
 11
     87.5000000
 21
      1.7545300
0
LINE
  8
0
 10
     87.5000000
 20
      1.7545300
 11
     87.6000000
 21
      1.7424300
0
LINE
  8
0
 10
     87.6000000
 20
      1.7424300
 11
     87.7000000
 21
      1.7303100
0
LINE
  8
0
 10
     87.7000000
 20
      1.7303100
 11
     87.8000000
 21
      1.7181800
0
LINE
  8
0
 10
     87.8000000
 20
      1.7181800
 11
     87.9000000
 21
      1.7060300
0
LINE
  8
0
 10
     87.9000000
 20
      1.7060300
 11
     88.0000000
 21
      1.6938800
0
LINE
  8
0
 10
     88.0000000
 20
      1.6938800
 11
     88.1000000
 21
      1.6817000
0
LINE
  8
0
 10
     88.1000000
 20
      1.6817000
 11
     88.2000000
 21
      1.6695200
0
LINE
  8
0
 10
     88.2000000
 20
      1.6695200
 11
     88.3000000
 21
      1.6573200
0
LINE
  8
0
 10
     88.3000000
 20
      1.6573200
 11
     88.4000000
 21
      1.6451000
0
LINE
  8
0
 10
     88.4000000
 20
      1.6451000
 11
     88.5000000
 21
      1.6328700
0
LINE
  8
0
 10
     88.5000000
 20
      1.6328700
 11
     88.6000000
 21
      1.6206300
0
LINE
  8
0
 10
     88.6000000
 20
      1.6206300
 11
     88.7000000
 21
      1.6083700
0
LINE
  8
0
 10
     88.7000000
 20
      1.6083700
 11
     88.8000000
 21
      1.5961000
0
LINE
  8
0
 10
     88.8000000
 20
      1.5961000
 11
     88.9000000
 21
      1.5838100
0
LINE
  8
0
 10
     88.9000000
 20
      1.5838100
 11
     89.0000000
 21
      1.5715100
0
LINE
  8
0
 10
     89.0000000
 20
      1.5715100
 11
     89.1000000
 21
      1.5592000
0
LINE
  8
0
 10
     89.1000000
 20
      1.5592000
 11
     89.2000000
 21
      1.5468700
0
LINE
  8
0
 10
     89.2000000
 20
      1.5468700
 11
     89.3000000
 21
      1.5345200
0
LINE
  8
0
 10
     89.3000000
 20
      1.5345200
 11
     89.4000000
 21
      1.5221700
0
LINE
  8
0
 10
     89.4000000
 20
      1.5221700
 11
     89.5000000
 21
      1.5097900
0
LINE
  8
0
 10
     89.5000000
 20
      1.5097900
 11
     89.6000100
 21
      1.4974100
0
LINE
  8
0
 10
     89.6000100
 20
      1.4974100
 11
     89.7000000
 21
      1.4850100
0
LINE
  8
0
 10
     89.7000000
 20
      1.4850100
 11
     89.8000000
 21
      1.4725900
0
LINE
  8
0
 10
     89.8000000
 20
      1.4725900
 11
     89.9000000
 21
      1.4601600
0
LINE
  8
0
 10
     89.9000000
 20
      1.4601600
 11
     90.0000000
 21
      1.4477200
0
LINE
  8
0
 10
     90.0000000
 20
      1.4477200
 11
     90.1000100
 21
      1.4352600
0
LINE
  8
0
 10
     90.1000100
 20
      1.4352600
 11
     90.2000000
 21
      1.4227900
0
LINE
  8
0
 10
     90.2000000
 20
      1.4227900
 11
     90.3000000
 21
      1.4103000
0
LINE
  8
0
 10
     90.3000000
 20
      1.4103000
 11
     90.4000000
 21
      1.3978000
0
LINE
  8
0
 10
     90.4000000
 20
      1.3978000
 11
     90.5000000
 21
      1.3852800
0
LINE
  8
0
 10
     90.5000000
 20
      1.3852800
 11
     90.6000000
 21
      1.3727500
0
LINE
  8
0
 10
     90.6000000
 20
      1.3727500
 11
     90.7000000
 21
      1.3602000
0
LINE
  8
0
 10
     90.7000000
 20
      1.3602000
 11
     90.8000000
 21
      1.3476400
0
LINE
  8
0
 10
     90.8000000
 20
      1.3476400
 11
     90.9000000
 21
      1.3350700
0
LINE
  8
0
 10
     90.9000000
 20
      1.3350700
 11
     91.0000000
 21
      1.3224700
0
LINE
  8
0
 10
     91.0000000
 20
      1.3224700
 11
     91.1000000
 21
      1.3098700
0
LINE
  8
0
 10
     91.1000000
 20
      1.3098700
 11
     91.2000000
 21
      1.2972500
0
LINE
  8
0
 10
     91.2000000
 20
      1.2972500
 11
     91.3000000
 21
      1.2846200
0
LINE
  8
0
 10
     91.3000000
 20
      1.2846200
 11
     91.3999900
 21
      1.2719700
0
LINE
  8
0
 10
     91.3999900
 20
      1.2719700
 11
     91.5000000
 21
      1.2593000
0
LINE
  8
0
 10
     91.5000000
 20
      1.2593000
 11
     91.6000000
 21
      1.2466200
0
LINE
  8
0
 10
     91.6000000
 20
      1.2466200
 11
     91.7000000
 21
      1.2339300
0
LINE
  8
0
 10
     91.7000000
 20
      1.2339300
 11
     91.8000000
 21
      1.2212200
0
LINE
  8
0
 10
     91.8000000
 20
      1.2212200
 11
     91.9000000
 21
      1.2085000
0
LINE
  8
0
 10
     91.9000000
 20
      1.2085000
 11
     92.0000000
 21
      1.1957600
0
LINE
  8
0
 10
     92.0000000
 20
      1.1957600
 11
     92.1000000
 21
      1.1830100
0
LINE
  8
0
 10
     92.1000000
 20
      1.1830100
 11
     92.2000000
 21
      1.1702400
0
LINE
  8
0
 10
     92.2000000
 20
      1.1702400
 11
     92.3000000
 21
      1.1574600
0
LINE
  8
0
 10
     92.3000000
 20
      1.1574600
 11
     92.4000000
 21
      1.1446600
0
LINE
  8
0
 10
     92.4000000
 20
      1.1446600
 11
     92.5000000
 21
      1.1318500
0
LINE
  8
0
 10
     92.5000000
 20
      1.1318500
 11
     92.6000000
 21
      1.1190200
0
LINE
  8
0
 10
     92.6000000
 20
      1.1190200
 11
     92.7000000
 21
      1.1061800
0
LINE
  8
0
 10
     92.7000000
 20
      1.1061800
 11
     92.8000000
 21
      1.0933200
0
LINE
  8
0
 10
     92.8000000
 20
      1.0933200
 11
     92.9000000
 21
      1.0804400
0
LINE
  8
0
 10
     92.9000000
 20
      1.0804400
 11
     93.0000000
 21
      1.0675500
0
LINE
  8
0
 10
     93.0000000
 20
      1.0675500
 11
     93.1000000
 21
      1.0546500
0
LINE
  8
0
 10
     93.1000000
 20
      1.0546500
 11
     93.2000000
 21
      1.0417300
0
LINE
  8
0
 10
     93.2000000
 20
      1.0417300
 11
     93.3000000
 21
      1.0288000
0
LINE
  8
0
 10
     93.3000000
 20
      1.0288000
 11
     93.4000000
 21
      1.0158500
0
LINE
  8
0
 10
     93.4000000
 20
      1.0158500
 11
     93.5000000
 21
      1.0028800
0
LINE
  8
0
 10
     93.5000000
 20
      1.0028800
 11
     93.6000000
 21
       .9899000
0
LINE
  8
0
 10
     93.6000000
 20
       .9899000
 11
     93.7000000
 21
       .9769100
0
LINE
  8
0
 10
     93.7000000
 20
       .9769100
 11
     93.8000000
 21
       .9639000
0
LINE
  8
0
 10
     93.8000000
 20
       .9639000
 11
     93.9000000
 21
       .9508700
0
LINE
  8
0
 10
     93.9000000
 20
       .9508700
 11
     94.0000000
 21
       .9378300
0
LINE
  8
0
 10
     94.0000000
 20
       .9378300
 11
     94.1000000
 21
       .9247700
0
LINE
  8
0
 10
     94.1000000
 20
       .9247700
 11
     94.2000000
 21
       .9117000
0
LINE
  8
0
 10
     94.2000000
 20
       .9117000
 11
     94.3000000
 21
       .8986100
0
LINE
  8
0
 10
     94.3000000
 20
       .8986100
 11
     94.4000000
 21
       .8855100
0
LINE
  8
0
 10
     94.4000000
 20
       .8855100
 11
     94.5000000
 21
       .8723900
0
LINE
  8
0
 10
     94.5000000
 20
       .8723900
 11
     94.6000000
 21
       .8592600
0
LINE
  8
0
 10
     94.6000000
 20
       .8592600
 11
     94.7000000
 21
       .8461000
0
LINE
  8
0
 10
     94.7000000
 20
       .8461000
 11
     94.8000000
 21
       .8329400
0
LINE
  8
0
 10
     94.8000000
 20
       .8329400
 11
     94.9000000
 21
       .8197600
0
LINE
  8
0
 10
     94.9000000
 20
       .8197600
 11
     95.0000000
 21
       .8065600
0
LINE
  8
0
 10
     95.0000000
 20
       .8065600
 11
     95.1000000
 21
       .7933500
0
LINE
  8
0
 10
     95.1000000
 20
       .7933500
 11
     95.2000000
 21
       .7801200
0
LINE
  8
0
 10
     95.2000000
 20
       .7801200
 11
     95.3000000
 21
       .7668700
0
LINE
  8
0
 10
     95.3000000
 20
       .7668700
 11
     95.4000000
 21
       .7536100
0
LINE
  8
0
 10
     95.4000000
 20
       .7536100
 11
     95.5000000
 21
       .7403400
0
LINE
  8
0
 10
     95.5000000
 20
       .7403400
 11
     95.6000000
 21
       .7270500
0
LINE
  8
0
 10
     95.6000000
 20
       .7270500
 11
     95.7000000
 21
       .7137400
0
LINE
  8
0
 10
     95.7000000
 20
       .7137400
 11
     95.8000000
 21
       .7004100
0
LINE
  8
0
 10
     95.8000000
 20
       .7004100
 11
     95.9000000
 21
       .6870700
0
LINE
  8
0
 10
     95.9000000
 20
       .6870700
 11
     96.0000000
 21
       .6737200
0
LINE
  8
0
 10
     96.0000000
 20
       .6737200
 11
     96.1000100
 21
       .6603500
0
LINE
  8
0
 10
     96.1000100
 20
       .6603500
 11
     96.2000000
 21
       .6469600
0
LINE
  8
0
 10
     96.2000000
 20
       .6469600
 11
     96.3000000
 21
       .6335500
0
LINE
  8
0
 10
     96.3000000
 20
       .6335500
 11
     96.4000000
 21
       .6201300
0
LINE
  8
0
 10
     96.4000000
 20
       .6201300
 11
     96.5000000
 21
       .6067000
0
LINE
  8
0
 10
     96.5000000
 20
       .6067000
 11
     96.6000000
 21
       .5932400
0
LINE
  8
0
 10
     96.6000000
 20
       .5932400
 11
     96.7000000
 21
       .5797800
0
LINE
  8
0
 10
     96.7000000
 20
       .5797800
 11
     96.8000000
 21
       .5662900
0
LINE
  8
0
 10
     96.8000000
 20
       .5662900
 11
     96.9000000
 21
       .5527900
0
LINE
  8
0
 10
     96.9000000
 20
       .5527900
 11
     97.0000000
 21
       .5392700
0
LINE
  8
0
 10
     97.0000000
 20
       .5392700
 11
     97.1000000
 21
       .5257400
0
LINE
  8
0
 10
     97.1000000
 20
       .5257400
 11
     97.2000000
 21
       .5121900
0
LINE
  8
0
 10
     97.2000000
 20
       .5121900
 11
     97.3000000
 21
       .4986200
0
LINE
  8
0
 10
     97.3000000
 20
       .4986200
 11
     97.3999900
 21
       .4850400
0
LINE
  8
0
 10
     97.3999900
 20
       .4850400
 11
     97.5000000
 21
       .4714400
0
LINE
  8
0
 10
     97.5000000
 20
       .4714400
 11
     97.6000000
 21
       .4578200
0
LINE
  8
0
 10
     97.6000000
 20
       .4578200
 11
     97.7000000
 21
       .4441900
0
LINE
  8
0
 10
     97.7000000
 20
       .4441900
 11
     97.8000000
 21
       .4305400
0
LINE
  8
0
 10
     97.8000000
 20
       .4305400
 11
     97.8999900
 21
       .4168800
0
LINE
  8
0
 10
     97.8999900
 20
       .4168800
 11
     98.0000000
 21
       .4031900
0
LINE
  8
0
 10
     98.0000000
 20
       .4031900
 11
     98.1000000
 21
       .3894900
0
LINE
  8
0
 10
     98.1000000
 20
       .3894900
 11
     98.2000000
 21
       .3757800
0
LINE
  8
0
 10
     98.2000000
 20
       .3757800
 11
     98.3000000
 21
       .3620500
0
LINE
  8
0
 10
     98.3000000
 20
       .3620500
 11
     98.4000000
 21
       .3483000
0
LINE
  8
0
 10
     98.4000000
 20
       .3483000
 11
     98.5000000
 21
       .3345300
0
LINE
  8
0
 10
     98.5000000
 20
       .3345300
 11
     98.6000000
 21
       .3207500
0
LINE
  8
0
 10
     98.6000000
 20
       .3207500
 11
     98.7000000
 21
       .3069500
0
LINE
  8
0
 10
     98.7000000
 20
       .3069500
 11
     98.8000000
 21
       .2931300
0
LINE
  8
0
 10
     98.8000000
 20
       .2931300
 11
     98.9000000
 21
       .2793000
0
LINE
  8
0
 10
     98.9000000
 20
       .2793000
 11
     99.0000000
 21
       .2654500
0
LINE
  8
0
 10
     99.0000000
 20
       .2654500
 11
     99.1000000
 21
       .2515800
0
LINE
  8
0
 10
     99.1000000
 20
       .2515800
 11
     99.2000000
 21
       .2377000
0
LINE
  8
0
 10
     99.2000000
 20
       .2377000
 11
     99.3000000
 21
       .2237900
0
LINE
  8
0
 10
     99.3000000
 20
       .2237900
 11
     99.4000000
 21
       .2098800
0
LINE
  8
0
 10
     99.4000000
 20
       .2098800
 11
     99.5000000
 21
       .1959400
0
LINE
  8
0
 10
     99.5000000
 20
       .1959400
 11
     99.6000000
 21
       .1819900
0
LINE
  8
0
 10
     99.6000000
 20
       .1819900
 11
     99.7000000
 21
       .1680200
0
LINE
  8
0
 10
     99.7000000
 20
       .1680200
 11
     99.8000000
 21
       .1540300
0
LINE
  8
0
 10
     99.8000000
 20
       .1540300
 11
     99.9000000
 21
       .1400200
0
LINE
  8
0
 10
     99.9000000
 20
       .1400200
 11
    100.0000000
 21
       .1260000
0
LINE
  8
0
 10
       .0000000
 20
       .0000000
 11
       .1000000
 21
      -.6772000
0
LINE
  8
0
 10
       .1000000
 20
      -.6772000
 11
       .2000000
 21
      -.7814600
0
LINE
  8
0
 10
       .2000000
 20
      -.7814600
 11
       .3000000
 21
      -.9528400
0
LINE
  8
0
 10
       .3000000
 20
      -.9528400
 11
       .4000000
 21
     -1.0960800
0
LINE
  8
0
 10
       .4000000
 20
     -1.0960800
 11
       .5000000
 21
     -1.2213100
0
LINE
  8
0
 10
       .5000000
 20
     -1.2213100
 11
       .6000000
 21
     -1.3337500
0
LINE
  8
0
 10
       .6000000
 20
     -1.3337500
 11
       .7000000
 21
     -1.4364800
0
LINE
  8
0
 10
       .7000000
 20
     -1.4364800
 11
       .8000000
 21
     -1.5315100
0
LINE
  8
0
 10
       .8000000
 20
     -1.5315100
 11
       .9000000
 21
     -1.6202500
0
LINE
  8
0
 10
       .9000000
 20
     -1.6202500
 11
      1.0000000
 21
     -1.7037100
0
LINE
  8
0
 10
      1.0000000
 20
     -1.7037100
 11
      1.1000000
 21
     -1.7826600
0
LINE
  8
0
 10
      1.1000000
 20
     -1.7826600
 11
      1.2000000
 21
     -1.8577000
0
LINE
  8
0
 10
      1.2000000
 20
     -1.8577000
 11
      1.3000000
 21
     -1.9293000
0
LINE
  8
0
 10
      1.3000000
 20
     -1.9293000
 11
      1.4000000
 21
     -1.9978500
0
LINE
  8
0
 10
      1.4000000
 20
     -1.9978500
 11
      1.5000000
 21
     -2.0636700
0
LINE
  8
0
 10
      1.5000000
 20
     -2.0636700
 11
      1.6000000
 21
     -2.1270200
0
LINE
  8
0
 10
      1.6000000
 20
     -2.1270200
 11
      1.7000000
 21
     -2.1881300
0
LINE
  8
0
 10
      1.7000000
 20
     -2.1881300
 11
      1.8000000
 21
     -2.2471800
0
LINE
  8
0
 10
      1.8000000
 20
     -2.2471800
 11
      1.9000000
 21
     -2.3043500
0
LINE
  8
0
 10
      1.9000000
 20
     -2.3043500
 11
      2.0000000
 21
     -2.3597800
0
LINE
  8
0
 10
      2.0000000
 20
     -2.3597800
 11
      2.1000000
 21
     -2.4135900
0
LINE
  8
0
 10
      2.1000000
 20
     -2.4135900
 11
      2.2000000
 21
     -2.4658900
0
LINE
  8
0
 10
      2.2000000
 20
     -2.4658900
 11
      2.3000000
 21
     -2.5167900
0
LINE
  8
0
 10
      2.3000000
 20
     -2.5167900
 11
      2.4000000
 21
     -2.5663800
0
LINE
  8
0
 10
      2.4000000
 20
     -2.5663800
 11
      2.5000000
 21
     -2.6147200
0
LINE
  8
0
 10
      2.5000000
 20
     -2.6147200
 11
      2.6000000
 21
     -2.6619000
0
LINE
  8
0
 10
      2.6000000
 20
     -2.6619000
 11
      2.7000000
 21
     -2.7079700
0
LINE
  8
0
 10
      2.7000000
 20
     -2.7079700
 11
      2.8000000
 21
     -2.7530000
0
LINE
  8
0
 10
      2.8000000
 20
     -2.7530000
 11
      2.9000000
 21
     -2.7970400
0
LINE
  8
0
 10
      2.9000000
 20
     -2.7970400
 11
      3.0000000
 21
     -2.8401400
0
LINE
  8
0
 10
      3.0000000
 20
     -2.8401400
 11
      3.1000000
 21
     -2.8823500
0
LINE
  8
0
 10
      3.1000000
 20
     -2.8823500
 11
      3.2000000
 21
     -2.9237000
0
LINE
  8
0
 10
      3.2000000
 20
     -2.9237000
 11
      3.3000000
 21
     -2.9642300
0
LINE
  8
0
 10
      3.3000000
 20
     -2.9642300
 11
      3.4000000
 21
     -3.0039700
0
LINE
  8
0
 10
      3.4000000
 20
     -3.0039700
 11
      3.5000000
 21
     -3.0429700
0
LINE
  8
0
 10
      3.5000000
 20
     -3.0429700
 11
      3.6000000
 21
     -3.0812500
0
LINE
  8
0
 10
      3.6000000
 20
     -3.0812500
 11
      3.7000000
 21
     -3.1188400
0
LINE
  8
0
 10
      3.7000000
 20
     -3.1188400
 11
      3.8000000
 21
     -3.1557700
0
LINE
  8
0
 10
      3.8000000
 20
     -3.1557700
 11
      3.9000000
 21
     -3.1920500
0
LINE
  8
0
 10
      3.9000000
 20
     -3.1920500
 11
      4.0000000
 21
     -3.2277200
0
LINE
  8
0
 10
      4.0000000
 20
     -3.2277200
 11
      4.1000000
 21
     -3.2628000
0
LINE
  8
0
 10
      4.1000000
 20
     -3.2628000
 11
      4.2000000
 21
     -3.2973000
0
LINE
  8
0
 10
      4.2000000
 20
     -3.2973000
 11
      4.3000000
 21
     -3.3312400
0
LINE
  8
0
 10
      4.3000000
 20
     -3.3312400
 11
      4.4000000
 21
     -3.3646400
0
LINE
  8
0
 10
      4.4000000
 20
     -3.3646400
 11
      4.5000000
 21
     -3.3975300
0
LINE
  8
0
 10
      4.5000000
 20
     -3.3975300
 11
      4.6000000
 21
     -3.4299100
0
LINE
  8
0
 10
      4.6000000
 20
     -3.4299100
 11
      4.7000000
 21
     -3.4618000
0
LINE
  8
0
 10
      4.7000000
 20
     -3.4618000
 11
      4.8000000
 21
     -3.4932200
0
LINE
  8
0
 10
      4.8000000
 20
     -3.4932200
 11
      4.9000000
 21
     -3.5241800
0
LINE
  8
0
 10
      4.9000000
 20
     -3.5241800
 11
      5.0000000
 21
     -3.5546900
0
LINE
  8
0
 10
      5.0000000
 20
     -3.5546900
 11
      5.1000000
 21
     -3.5847600
0
LINE
  8
0
 10
      5.1000000
 20
     -3.5847600
 11
      5.2000000
 21
     -3.6144100
0
LINE
  8
0
 10
      5.2000000
 20
     -3.6144100
 11
      5.3000000
 21
     -3.6436400
0
LINE
  8
0
 10
      5.3000000
 20
     -3.6436400
 11
      5.4000000
 21
     -3.6724800
0
LINE
  8
0
 10
      5.4000000
 20
     -3.6724800
 11
      5.5000000
 21
     -3.7009200
0
LINE
  8
0
 10
      5.5000000
 20
     -3.7009200
 11
      5.6000000
 21
     -3.7289800
0
LINE
  8
0
 10
      5.6000000
 20
     -3.7289800
 11
      5.7000000
 21
     -3.7566700
0
LINE
  8
0
 10
      5.7000000
 20
     -3.7566700
 11
      5.8000000
 21
     -3.7839900
0
LINE
  8
0
 10
      5.8000000
 20
     -3.7839900
 11
      5.9000000
 21
     -3.8109600
0
LINE
  8
0
 10
      5.9000000
 20
     -3.8109600
 11
      6.0000000
 21
     -3.8375800
0
LINE
  8
0
 10
      6.0000000
 20
     -3.8375800
 11
      6.1000000
 21
     -3.8638600
0
LINE
  8
0
 10
      6.1000000
 20
     -3.8638600
 11
      6.2000000
 21
     -3.8898100
0
LINE
  8
0
 10
      6.2000000
 20
     -3.8898100
 11
      6.3000000
 21
     -3.9154400
0
LINE
  8
0
 10
      6.3000000
 20
     -3.9154400
 11
      6.4000000
 21
     -3.9407500
0
LINE
  8
0
 10
      6.4000000
 20
     -3.9407500
 11
      6.5000000
 21
     -3.9657400
0
LINE
  8
0
 10
      6.5000000
 20
     -3.9657400
 11
      6.6000000
 21
     -3.9904300
0
LINE
  8
0
 10
      6.6000000
 20
     -3.9904300
 11
      6.7000000
 21
     -4.0148300
0
LINE
  8
0
 10
      6.7000000
 20
     -4.0148300
 11
      6.8000000
 21
     -4.0389300
0
LINE
  8
0
 10
      6.8000000
 20
     -4.0389300
 11
      6.9000000
 21
     -4.0627400
0
LINE
  8
0
 10
      6.9000000
 20
     -4.0627400
 11
      7.0000000
 21
     -4.0862800
0
LINE
  8
0
 10
      7.0000000
 20
     -4.0862800
 11
      7.1000000
 21
     -4.1095300
0
LINE
  8
0
 10
      7.1000000
 20
     -4.1095300
 11
      7.2000000
 21
     -4.1325200
0
LINE
  8
0
 10
      7.2000000
 20
     -4.1325200
 11
      7.3000000
 21
     -4.1552400
0
LINE
  8
0
 10
      7.3000000
 20
     -4.1552400
 11
      7.4000000
 21
     -4.1777000
0
LINE
  8
0
 10
      7.4000000
 20
     -4.1777000
 11
      7.5000000
 21
     -4.1999000
0
LINE
  8
0
 10
      7.5000000
 20
     -4.1999000
 11
      7.6000000
 21
     -4.2218600
0
LINE
  8
0
 10
      7.6000000
 20
     -4.2218600
 11
      7.7000000
 21
     -4.2435600
0
LINE
  8
0
 10
      7.7000000
 20
     -4.2435600
 11
      7.8000000
 21
     -4.2650200
0
LINE
  8
0
 10
      7.8000000
 20
     -4.2650200
 11
      7.9000000
 21
     -4.2862400
0
LINE
  8
0
 10
      7.9000000
 20
     -4.2862400
 11
      8.0000000
 21
     -4.3072300
0
LINE
  8
0
 10
      8.0000000
 20
     -4.3072300
 11
      8.1000000
 21
     -4.3279900
0
LINE
  8
0
 10
      8.1000000
 20
     -4.3279900
 11
      8.2000000
 21
     -4.3485100
0
LINE
  8
0
 10
      8.2000000
 20
     -4.3485100
 11
      8.3000000
 21
     -4.3688200
0
LINE
  8
0
 10
      8.3000000
 20
     -4.3688200
 11
      8.4000000
 21
     -4.3889000
0
LINE
  8
0
 10
      8.4000000
 20
     -4.3889000
 11
      8.5000000
 21
     -4.4087700
0
LINE
  8
0
 10
      8.5000000
 20
     -4.4087700
 11
      8.6000000
 21
     -4.4284200
0
LINE
  8
0
 10
      8.6000000
 20
     -4.4284200
 11
      8.7000000
 21
     -4.4478600
0
LINE
  8
0
 10
      8.7000000
 20
     -4.4478600
 11
      8.8000000
 21
     -4.4671000
0
LINE
  8
0
 10
      8.8000000
 20
     -4.4671000
 11
      8.9000000
 21
     -4.4861300
0
LINE
  8
0
 10
      8.9000000
 20
     -4.4861300
 11
      9.0000000
 21
     -4.5049600
0
LINE
  8
0
 10
      9.0000000
 20
     -4.5049600
 11
      9.1000000
 21
     -4.5235900
0
LINE
  8
0
 10
      9.1000000
 20
     -4.5235900
 11
      9.2000000
 21
     -4.5420200
0
LINE
  8
0
 10
      9.2000000
 20
     -4.5420200
 11
      9.3000000
 21
     -4.5602700
0
LINE
  8
0
 10
      9.3000000
 20
     -4.5602700
 11
      9.4000000
 21
     -4.5783200
0
LINE
  8
0
 10
      9.4000000
 20
     -4.5783200
 11
      9.5000000
 21
     -4.5961800
0
LINE
  8
0
 10
      9.5000000
 20
     -4.5961800
 11
      9.6000000
 21
     -4.6138600
0
LINE
  8
0
 10
      9.6000000
 20
     -4.6138600
 11
      9.7000000
 21
     -4.6313600
0
LINE
  8
0
 10
      9.7000000
 20
     -4.6313600
 11
      9.8000000
 21
     -4.6486700
0
LINE
  8
0
 10
      9.8000000
 20
     -4.6486700
 11
      9.9000000
 21
     -4.6658100
0
LINE
  8
0
 10
      9.9000000
 20
     -4.6658100
 11
     10.0000000
 21
     -4.6827700
0
LINE
  8
0
 10
     10.0000000
 20
     -4.6827700
 11
     10.1000000
 21
     -4.6995600
0
LINE
  8
0
 10
     10.1000000
 20
     -4.6995600
 11
     10.2000000
 21
     -4.7161800
0
LINE
  8
0
 10
     10.2000000
 20
     -4.7161800
 11
     10.3000000
 21
     -4.7326200
0
LINE
  8
0
 10
     10.3000000
 20
     -4.7326200
 11
     10.4000000
 21
     -4.7489000
0
LINE
  8
0
 10
     10.4000000
 20
     -4.7489000
 11
     10.5000000
 21
     -4.7650200
0
LINE
  8
0
 10
     10.5000000
 20
     -4.7650200
 11
     10.6000000
 21
     -4.7809700
0
LINE
  8
0
 10
     10.6000000
 20
     -4.7809700
 11
     10.7000000
 21
     -4.7967600
0
LINE
  8
0
 10
     10.7000000
 20
     -4.7967600
 11
     10.8000000
 21
     -4.8123900
0
LINE
  8
0
 10
     10.8000000
 20
     -4.8123900
 11
     10.9000000
 21
     -4.8278700
0
LINE
  8
0
 10
     10.9000000
 20
     -4.8278700
 11
     11.0000000
 21
     -4.8431900
0
LINE
  8
0
 10
     11.0000000
 20
     -4.8431900
 11
     11.1000000
 21
     -4.8583500
0
LINE
  8
0
 10
     11.1000000
 20
     -4.8583500
 11
     11.2000000
 21
     -4.8733600
0
LINE
  8
0
 10
     11.2000000
 20
     -4.8733600
 11
     11.3000000
 21
     -4.8882300
0
LINE
  8
0
 10
     11.3000000
 20
     -4.8882300
 11
     11.4000000
 21
     -4.9029400
0
LINE
  8
0
 10
     11.4000000
 20
     -4.9029400
 11
     11.5000000
 21
     -4.9175000
0
LINE
  8
0
 10
     11.5000000
 20
     -4.9175000
 11
     11.6000000
 21
     -4.9319300
0
LINE
  8
0
 10
     11.6000000
 20
     -4.9319300
 11
     11.7000000
 21
     -4.9462000
0
LINE
  8
0
 10
     11.7000000
 20
     -4.9462000
 11
     11.8000000
 21
     -4.9603400
0
LINE
  8
0
 10
     11.8000000
 20
     -4.9603400
 11
     11.9000000
 21
     -4.9743300
0
LINE
  8
0
 10
     11.9000000
 20
     -4.9743300
 11
     12.0000000
 21
     -4.9881800
0
LINE
  8
0
 10
     12.0000000
 20
     -4.9881800
 11
     12.1000000
 21
     -5.0019000
0
LINE
  8
0
 10
     12.1000000
 20
     -5.0019000
 11
     12.2000000
 21
     -5.0154800
0
LINE
  8
0
 10
     12.2000000
 20
     -5.0154800
 11
     12.3000000
 21
     -5.0289200
0
LINE
  8
0
 10
     12.3000000
 20
     -5.0289200
 11
     12.4000000
 21
     -5.0422300
0
LINE
  8
0
 10
     12.4000000
 20
     -5.0422300
 11
     12.5000000
 21
     -5.0554000
0
LINE
  8
0
 10
     12.5000000
 20
     -5.0554000
 11
     12.6000000
 21
     -5.0684500
0
LINE
  8
0
 10
     12.6000000
 20
     -5.0684500
 11
     12.7000000
 21
     -5.0813700
0
LINE
  8
0
 10
     12.7000000
 20
     -5.0813700
 11
     12.8000000
 21
     -5.0941500
0
LINE
  8
0
 10
     12.8000000
 20
     -5.0941500
 11
     12.9000000
 21
     -5.1068100
0
LINE
  8
0
 10
     12.9000000
 20
     -5.1068100
 11
     13.0000000
 21
     -5.1193400
0
LINE
  8
0
 10
     13.0000000
 20
     -5.1193400
 11
     13.1000000
 21
     -5.1317500
0
LINE
  8
0
 10
     13.1000000
 20
     -5.1317500
 11
     13.2000000
 21
     -5.1440300
0
LINE
  8
0
 10
     13.2000000
 20
     -5.1440300
 11
     13.3000000
 21
     -5.1562000
0
LINE
  8
0
 10
     13.3000000
 20
     -5.1562000
 11
     13.4000000
 21
     -5.1682300
0
LINE
  8
0
 10
     13.4000000
 20
     -5.1682300
 11
     13.5000000
 21
     -5.1801500
0
LINE
  8
0
 10
     13.5000000
 20
     -5.1801500
 11
     13.6000000
 21
     -5.1919500
0
LINE
  8
0
 10
     13.6000000
 20
     -5.1919500
 11
     13.7000000
 21
     -5.2036300
0
LINE
  8
0
 10
     13.7000000
 20
     -5.2036300
 11
     13.8000000
 21
     -5.2152000
0
LINE
  8
0
 10
     13.8000000
 20
     -5.2152000
 11
     13.9000000
 21
     -5.2266400
0
LINE
  8
0
 10
     13.9000000
 20
     -5.2266400
 11
     14.0000000
 21
     -5.2379700
0
LINE
  8
0
 10
     14.0000000
 20
     -5.2379700
 11
     14.1000000
 21
     -5.2491900
0
LINE
  8
0
 10
     14.1000000
 20
     -5.2491900
 11
     14.2000000
 21
     -5.2603000
0
LINE
  8
0
 10
     14.2000000
 20
     -5.2603000
 11
     14.3000000
 21
     -5.2712900
0
LINE
  8
0
 10
     14.3000000
 20
     -5.2712900
 11
     14.4000000
 21
     -5.2821700
0
LINE
  8
0
 10
     14.4000000
 20
     -5.2821700
 11
     14.5000000
 21
     -5.2929400
0
LINE
  8
0
 10
     14.5000000
 20
     -5.2929400
 11
     14.6000000
 21
     -5.3036000
0
LINE
  8
0
 10
     14.6000000
 20
     -5.3036000
 11
     14.7000000
 21
     -5.3141500
0
LINE
  8
0
 10
     14.7000000
 20
     -5.3141500
 11
     14.8000000
 21
     -5.3245900
0
LINE
  8
0
 10
     14.8000000
 20
     -5.3245900
 11
     14.9000000
 21
     -5.3349300
0
LINE
  8
0
 10
     14.9000000
 20
     -5.3349300
 11
     15.0000000
 21
     -5.3451600
0
LINE
  8
0
 10
     15.0000000
 20
     -5.3451600
 11
     15.1000000
 21
     -5.3552900
0
LINE
  8
0
 10
     15.1000000
 20
     -5.3552900
 11
     15.2000000
 21
     -5.3653100
0
LINE
  8
0
 10
     15.2000000
 20
     -5.3653100
 11
     15.3000000
 21
     -5.3752300
0
LINE
  8
0
 10
     15.3000000
 20
     -5.3752300
 11
     15.4000000
 21
     -5.3850400
0
LINE
  8
0
 10
     15.4000000
 20
     -5.3850400
 11
     15.5000000
 21
     -5.3947500
0
LINE
  8
0
 10
     15.5000000
 20
     -5.3947500
 11
     15.6000000
 21
     -5.4043700
0
LINE
  8
0
 10
     15.6000000
 20
     -5.4043700
 11
     15.7000000
 21
     -5.4138800
0
LINE
  8
0
 10
     15.7000000
 20
     -5.4138800
 11
     15.8000000
 21
     -5.4232900
0
LINE
  8
0
 10
     15.8000000
 20
     -5.4232900
 11
     15.9000000
 21
     -5.4326100
0
LINE
  8
0
 10
     15.9000000
 20
     -5.4326100
 11
     16.0000000
 21
     -5.4418200
0
LINE
  8
0
 10
     16.0000000
 20
     -5.4418200
 11
     16.1000000
 21
     -5.4509400
0
LINE
  8
0
 10
     16.1000000
 20
     -5.4509400
 11
     16.2000000
 21
     -5.4599600
0
LINE
  8
0
 10
     16.2000000
 20
     -5.4599600
 11
     16.3000000
 21
     -5.4688900
0
LINE
  8
0
 10
     16.3000000
 20
     -5.4688900
 11
     16.4000000
 21
     -5.4777200
0
LINE
  8
0
 10
     16.4000000
 20
     -5.4777200
 11
     16.5000000
 21
     -5.4864600
0
LINE
  8
0
 10
     16.5000000
 20
     -5.4864600
 11
     16.6000000
 21
     -5.4951000
0
LINE
  8
0
 10
     16.6000000
 20
     -5.4951000
 11
     16.7000000
 21
     -5.5036500
0
LINE
  8
0
 10
     16.7000000
 20
     -5.5036500
 11
     16.8000000
 21
     -5.5121100
0
LINE
  8
0
 10
     16.8000000
 20
     -5.5121100
 11
     16.9000000
 21
     -5.5204700
0
LINE
  8
0
 10
     16.9000000
 20
     -5.5204700
 11
     17.0000000
 21
     -5.5287500
0
LINE
  8
0
 10
     17.0000000
 20
     -5.5287500
 11
     17.1000000
 21
     -5.5369300
0
LINE
  8
0
 10
     17.1000000
 20
     -5.5369300
 11
     17.2000000
 21
     -5.5450200
0
LINE
  8
0
 10
     17.2000000
 20
     -5.5450200
 11
     17.3000000
 21
     -5.5530300
0
LINE
  8
0
 10
     17.3000000
 20
     -5.5530300
 11
     17.4000000
 21
     -5.5609500
0
LINE
  8
0
 10
     17.4000000
 20
     -5.5609500
 11
     17.5000000
 21
     -5.5687700
0
LINE
  8
0
 10
     17.5000000
 20
     -5.5687700
 11
     17.6000000
 21
     -5.5765200
0
LINE
  8
0
 10
     17.6000000
 20
     -5.5765200
 11
     17.7000000
 21
     -5.5841700
0
LINE
  8
0
 10
     17.7000000
 20
     -5.5841700
 11
     17.8000000
 21
     -5.5917400
0
LINE
  8
0
 10
     17.8000000
 20
     -5.5917400
 11
     17.9000000
 21
     -5.5992200
0
LINE
  8
0
 10
     17.9000000
 20
     -5.5992200
 11
     18.0000000
 21
     -5.6066200
0
LINE
  8
0
 10
     18.0000000
 20
     -5.6066200
 11
     18.1000000
 21
     -5.6139300
0
LINE
  8
0
 10
     18.1000000
 20
     -5.6139300
 11
     18.2000000
 21
     -5.6211600
0
LINE
  8
0
 10
     18.2000000
 20
     -5.6211600
 11
     18.3000000
 21
     -5.6283100
0
LINE
  8
0
 10
     18.3000000
 20
     -5.6283100
 11
     18.4000000
 21
     -5.6353700
0
LINE
  8
0
 10
     18.4000000
 20
     -5.6353700
 11
     18.5000000
 21
     -5.6423500
0
LINE
  8
0
 10
     18.5000000
 20
     -5.6423500
 11
     18.6000000
 21
     -5.6492500
0
LINE
  8
0
 10
     18.6000000
 20
     -5.6492500
 11
     18.7000000
 21
     -5.6560700
0
LINE
  8
0
 10
     18.7000000
 20
     -5.6560700
 11
     18.8000000
 21
     -5.6628100
0
LINE
  8
0
 10
     18.8000000
 20
     -5.6628100
 11
     18.9000000
 21
     -5.6694600
0
LINE
  8
0
 10
     18.9000000
 20
     -5.6694600
 11
     19.0000000
 21
     -5.6760400
0
LINE
  8
0
 10
     19.0000000
 20
     -5.6760400
 11
     19.1000000
 21
     -5.6825400
0
LINE
  8
0
 10
     19.1000000
 20
     -5.6825400
 11
     19.2000000
 21
     -5.6889600
0
LINE
  8
0
 10
     19.2000000
 20
     -5.6889600
 11
     19.3000000
 21
     -5.6953000
0
LINE
  8
0
 10
     19.3000000
 20
     -5.6953000
 11
     19.4000000
 21
     -5.7015600
0
LINE
  8
0
 10
     19.4000000
 20
     -5.7015600
 11
     19.5000000
 21
     -5.7077500
0
LINE
  8
0
 10
     19.5000000
 20
     -5.7077500
 11
     19.6000000
 21
     -5.7138600
0
LINE
  8
0
 10
     19.6000000
 20
     -5.7138600
 11
     19.7000000
 21
     -5.7198900
0
LINE
  8
0
 10
     19.7000000
 20
     -5.7198900
 11
     19.8000000
 21
     -5.7258500
0
LINE
  8
0
 10
     19.8000000
 20
     -5.7258500
 11
     19.9000000
 21
     -5.7317400
0
LINE
  8
0
 10
     19.9000000
 20
     -5.7317400
 11
     20.0000000
 21
     -5.7375400
0
LINE
  8
0
 10
     20.0000000
 20
     -5.7375400
 11
     20.1000000
 21
     -5.7432800
0
LINE
  8
0
 10
     20.1000000
 20
     -5.7432800
 11
     20.2000000
 21
     -5.7489400
0
LINE
  8
0
 10
     20.2000000
 20
     -5.7489400
 11
     20.3000000
 21
     -5.7545200
0
LINE
  8
0
 10
     20.3000000
 20
     -5.7545200
 11
     20.4000000
 21
     -5.7600300
0
LINE
  8
0
 10
     20.4000000
 20
     -5.7600300
 11
     20.5000000
 21
     -5.7654700
0
LINE
  8
0
 10
     20.5000000
 20
     -5.7654700
 11
     20.6000000
 21
     -5.7708400
0
LINE
  8
0
 10
     20.6000000
 20
     -5.7708400
 11
     20.7000000
 21
     -5.7761400
0
LINE
  8
0
 10
     20.7000000
 20
     -5.7761400
 11
     20.8000000
 21
     -5.7813600
0
LINE
  8
0
 10
     20.8000000
 20
     -5.7813600
 11
     20.9000000
 21
     -5.7865100
0
LINE
  8
0
 10
     20.9000000
 20
     -5.7865100
 11
     21.0000000
 21
     -5.7916000
0
LINE
  8
0
 10
     21.0000000
 20
     -5.7916000
 11
     21.1000000
 21
     -5.7966100
0
LINE
  8
0
 10
     21.1000000
 20
     -5.7966100
 11
     21.2000000
 21
     -5.8015500
0
LINE
  8
0
 10
     21.2000000
 20
     -5.8015500
 11
     21.3000000
 21
     -5.8064300
0
LINE
  8
0
 10
     21.3000000
 20
     -5.8064300
 11
     21.4000000
 21
     -5.8112300
0
LINE
  8
0
 10
     21.4000000
 20
     -5.8112300
 11
     21.5000000
 21
     -5.8159700
0
LINE
  8
0
 10
     21.5000000
 20
     -5.8159700
 11
     21.6000000
 21
     -5.8206300
0
LINE
  8
0
 10
     21.6000000
 20
     -5.8206300
 11
     21.7000000
 21
     -5.8252300
0
LINE
  8
0
 10
     21.7000000
 20
     -5.8252300
 11
     21.8000000
 21
     -5.8297600
0
LINE
  8
0
 10
     21.8000000
 20
     -5.8297600
 11
     21.9000000
 21
     -5.8342300
0
LINE
  8
0
 10
     21.9000000
 20
     -5.8342300
 11
     22.0000000
 21
     -5.8386300
0
LINE
  8
0
 10
     22.0000000
 20
     -5.8386300
 11
     22.1000000
 21
     -5.8429600
0
LINE
  8
0
 10
     22.1000000
 20
     -5.8429600
 11
     22.2000000
 21
     -5.8472300
0
LINE
  8
0
 10
     22.2000000
 20
     -5.8472300
 11
     22.3000000
 21
     -5.8514300
0
LINE
  8
0
 10
     22.3000000
 20
     -5.8514300
 11
     22.4000000
 21
     -5.8555600
0
LINE
  8
0
 10
     22.4000000
 20
     -5.8555600
 11
     22.5000000
 21
     -5.8596300
0
LINE
  8
0
 10
     22.5000000
 20
     -5.8596300
 11
     22.6000000
 21
     -5.8636400
0
LINE
  8
0
 10
     22.6000000
 20
     -5.8636400
 11
     22.7000000
 21
     -5.8675800
0
LINE
  8
0
 10
     22.7000000
 20
     -5.8675800
 11
     22.8000000
 21
     -5.8714500
0
LINE
  8
0
 10
     22.8000000
 20
     -5.8714500
 11
     22.9000000
 21
     -5.8752700
0
LINE
  8
0
 10
     22.9000000
 20
     -5.8752700
 11
     23.0000000
 21
     -5.8790200
0
LINE
  8
0
 10
     23.0000000
 20
     -5.8790200
 11
     23.1000000
 21
     -5.8827100
0
LINE
  8
0
 10
     23.1000000
 20
     -5.8827100
 11
     23.2000000
 21
     -5.8863300
0
LINE
  8
0
 10
     23.2000000
 20
     -5.8863300
 11
     23.3000000
 21
     -5.8898900
0
LINE
  8
0
 10
     23.3000000
 20
     -5.8898900
 11
     23.4000000
 21
     -5.8933900
0
LINE
  8
0
 10
     23.4000000
 20
     -5.8933900
 11
     23.5000000
 21
     -5.8968300
0
LINE
  8
0
 10
     23.5000000
 20
     -5.8968300
 11
     23.6000000
 21
     -5.9002100
0
LINE
  8
0
 10
     23.6000000
 20
     -5.9002100
 11
     23.7000000
 21
     -5.9035300
0
LINE
  8
0
 10
     23.7000000
 20
     -5.9035300
 11
     23.8000000
 21
     -5.9067900
0
LINE
  8
0
 10
     23.8000000
 20
     -5.9067900
 11
     23.9000000
 21
     -5.9099800
0
LINE
  8
0
 10
     23.9000000
 20
     -5.9099800
 11
     24.0000000
 21
     -5.9131200
0
LINE
  8
0
 10
     24.0000000
 20
     -5.9131200
 11
     24.1000000
 21
     -5.9161900
0
LINE
  8
0
 10
     24.1000000
 20
     -5.9161900
 11
     24.2000000
 21
     -5.9192100
0
LINE
  8
0
 10
     24.2000000
 20
     -5.9192100
 11
     24.3000000
 21
     -5.9221700
0
LINE
  8
0
 10
     24.3000000
 20
     -5.9221700
 11
     24.4000000
 21
     -5.9250700
0
LINE
  8
0
 10
     24.4000000
 20
     -5.9250700
 11
     24.5000000
 21
     -5.9279100
0
LINE
  8
0
 10
     24.5000000
 20
     -5.9279100
 11
     24.6000000
 21
     -5.9306900
0
LINE
  8
0
 10
     24.6000000
 20
     -5.9306900
 11
     24.7000000
 21
     -5.9334100
0
LINE
  8
0
 10
     24.7000000
 20
     -5.9334100
 11
     24.8000000
 21
     -5.9360800
0
LINE
  8
0
 10
     24.8000000
 20
     -5.9360800
 11
     24.9000000
 21
     -5.9386900
0
LINE
  8
0
 10
     24.9000000
 20
     -5.9386900
 11
     25.0000000
 21
     -5.9412400
0
LINE
  8
0
 10
     25.0000000
 20
     -5.9412400
 11
     25.1000000
 21
     -5.9437400
0
LINE
  8
0
 10
     25.1000000
 20
     -5.9437400
 11
     25.2000000
 21
     -5.9461800
0
LINE
  8
0
 10
     25.2000000
 20
     -5.9461800
 11
     25.3000000
 21
     -5.9485600
0
LINE
  8
0
 10
     25.3000000
 20
     -5.9485600
 11
     25.4000000
 21
     -5.9508900
0
LINE
  8
0
 10
     25.4000000
 20
     -5.9508900
 11
     25.5000000
 21
     -5.9531600
0
LINE
  8
0
 10
     25.5000000
 20
     -5.9531600
 11
     25.6000000
 21
     -5.9553700
0
LINE
  8
0
 10
     25.6000000
 20
     -5.9553700
 11
     25.7000000
 21
     -5.9575300
0
LINE
  8
0
 10
     25.7000000
 20
     -5.9575300
 11
     25.8000000
 21
     -5.9596400
0
LINE
  8
0
 10
     25.8000000
 20
     -5.9596400
 11
     25.9000000
 21
     -5.9616900
0
LINE
  8
0
 10
     25.9000000
 20
     -5.9616900
 11
     26.0000000
 21
     -5.9636900
0
LINE
  8
0
 10
     26.0000000
 20
     -5.9636900
 11
     26.1000000
 21
     -5.9656300
0
LINE
  8
0
 10
     26.1000000
 20
     -5.9656300
 11
     26.2000000
 21
     -5.9675200
0
LINE
  8
0
 10
     26.2000000
 20
     -5.9675200
 11
     26.3000000
 21
     -5.9693500
0
LINE
  8
0
 10
     26.3000000
 20
     -5.9693500
 11
     26.4000000
 21
     -5.9711300
0
LINE
  8
0
 10
     26.4000000
 20
     -5.9711300
 11
     26.5000000
 21
     -5.9728600
0
LINE
  8
0
 10
     26.5000000
 20
     -5.9728600
 11
     26.6000000
 21
     -5.9745400
0
LINE
  8
0
 10
     26.6000000
 20
     -5.9745400
 11
     26.7000000
 21
     -5.9761600
0
LINE
  8
0
 10
     26.7000000
 20
     -5.9761600
 11
     26.8000000
 21
     -5.9777300
0
LINE
  8
0
 10
     26.8000000
 20
     -5.9777300
 11
     26.9000000
 21
     -5.9792500
0
LINE
  8
0
 10
     26.9000000
 20
     -5.9792500
 11
     27.0000000
 21
     -5.9807200
0
LINE
  8
0
 10
     27.0000000
 20
     -5.9807200
 11
     27.1000000
 21
     -5.9821300
0
LINE
  8
0
 10
     27.1000000
 20
     -5.9821300
 11
     27.2000000
 21
     -5.9834900
0
LINE
  8
0
 10
     27.2000000
 20
     -5.9834900
 11
     27.3000000
 21
     -5.9848100
0
LINE
  8
0
 10
     27.3000000
 20
     -5.9848100
 11
     27.4000000
 21
     -5.9860700
0
LINE
  8
0
 10
     27.4000000
 20
     -5.9860700
 11
     27.5000000
 21
     -5.9872800
0
LINE
  8
0
 10
     27.5000000
 20
     -5.9872800
 11
     27.6000000
 21
     -5.9884400
0
LINE
  8
0
 10
     27.6000000
 20
     -5.9884400
 11
     27.7000000
 21
     -5.9895500
0
LINE
  8
0
 10
     27.7000000
 20
     -5.9895500
 11
     27.8000000
 21
     -5.9906100
0
LINE
  8
0
 10
     27.8000000
 20
     -5.9906100
 11
     27.9000000
 21
     -5.9916200
0
LINE
  8
0
 10
     27.9000000
 20
     -5.9916200
 11
     28.0000000
 21
     -5.9925800
0
LINE
  8
0
 10
     28.0000000
 20
     -5.9925800
 11
     28.1000000
 21
     -5.9934900
0
LINE
  8
0
 10
     28.1000000
 20
     -5.9934900
 11
     28.2000000
 21
     -5.9943600
0
LINE
  8
0
 10
     28.2000000
 20
     -5.9943600
 11
     28.3000000
 21
     -5.9951700
0
LINE
  8
0
 10
     28.3000000
 20
     -5.9951700
 11
     28.4000000
 21
     -5.9959300
0
LINE
  8
0
 10
     28.4000000
 20
     -5.9959300
 11
     28.5000000
 21
     -5.9966500
0
LINE
  8
0
 10
     28.5000000
 20
     -5.9966500
 11
     28.6000000
 21
     -5.9973200
0
LINE
  8
0
 10
     28.6000000
 20
     -5.9973200
 11
     28.7000000
 21
     -5.9979400
0
LINE
  8
0
 10
     28.7000000
 20
     -5.9979400
 11
     28.8000000
 21
     -5.9985100
0
LINE
  8
0
 10
     28.8000000
 20
     -5.9985100
 11
     28.9000000
 21
     -5.9990400
0
LINE
  8
0
 10
     28.9000000
 20
     -5.9990400
 11
     29.0000000
 21
     -5.9995100
0
LINE
  8
0
 10
     29.0000000
 20
     -5.9995100
 11
     29.1000000
 21
     -5.9999400
0
LINE
  8
0
 10
     29.1000000
 20
     -5.9999400
 11
     29.2000000
 21
     -6.0003300
0
LINE
  8
0
 10
     29.2000000
 20
     -6.0003300
 11
     29.3000000
 21
     -6.0006600
0
LINE
  8
0
 10
     29.3000000
 20
     -6.0006600
 11
     29.4000000
 21
     -6.0009500
0
LINE
  8
0
 10
     29.4000000
 20
     -6.0009500
 11
     29.5000000
 21
     -6.0012000
0
LINE
  8
0
 10
     29.5000000
 20
     -6.0012000
 11
     29.6000000
 21
     -6.0013900
0
LINE
  8
0
 10
     29.6000000
 20
     -6.0013900
 11
     29.7000000
 21
     -6.0015500
0
LINE
  8
0
 10
     29.7000000
 20
     -6.0015500
 11
     29.8000000
 21
     -6.0016500
0
LINE
  8
0
 10
     29.8000000
 20
     -6.0016500
 11
     29.9000000
 21
     -6.0017100
0
LINE
  8
0
 10
     29.9000000
 20
     -6.0017100
 11
     30.0000000
 21
     -6.0017300
0
LINE
  8
0
 10
     30.0000000
 20
     -6.0017300
 11
     30.1000000
 21
     -6.0017000
0
LINE
  8
0
 10
     30.1000000
 20
     -6.0017000
 11
     30.2000000
 21
     -6.0016200
0
LINE
  8
0
 10
     30.2000000
 20
     -6.0016200
 11
     30.3000000
 21
     -6.0015000
0
LINE
  8
0
 10
     30.3000000
 20
     -6.0015000
 11
     30.4000000
 21
     -6.0013400
0
LINE
  8
0
 10
     30.4000000
 20
     -6.0013400
 11
     30.5000000
 21
     -6.0011300
0
LINE
  8
0
 10
     30.5000000
 20
     -6.0011300
 11
     30.6000000
 21
     -6.0008700
0
LINE
  8
0
 10
     30.6000000
 20
     -6.0008700
 11
     30.7000000
 21
     -6.0005800
0
LINE
  8
0
 10
     30.7000000
 20
     -6.0005800
 11
     30.8000000
 21
     -6.0002400
0
LINE
  8
0
 10
     30.8000000
 20
     -6.0002400
 11
     30.9000000
 21
     -5.9998500
0
LINE
  8
0
 10
     30.9000000
 20
     -5.9998500
 11
     31.0000000
 21
     -5.9994200
0
LINE
  8
0
 10
     31.0000000
 20
     -5.9994200
 11
     31.1000000
 21
     -5.9989500
0
LINE
  8
0
 10
     31.1000000
 20
     -5.9989500
 11
     31.2000000
 21
     -5.9984400
0
LINE
  8
0
 10
     31.2000000
 20
     -5.9984400
 11
     31.3000000
 21
     -5.9978800
0
LINE
  8
0
 10
     31.3000000
 20
     -5.9978800
 11
     31.4000000
 21
     -5.9972800
0
LINE
  8
0
 10
     31.4000000
 20
     -5.9972800
 11
     31.5000000
 21
     -5.9966400
0
LINE
  8
0
 10
     31.5000000
 20
     -5.9966400
 11
     31.6000000
 21
     -5.9959500
0
LINE
  8
0
 10
     31.6000000
 20
     -5.9959500
 11
     31.7000000
 21
     -5.9952200
0
LINE
  8
0
 10
     31.7000000
 20
     -5.9952200
 11
     31.8000000
 21
     -5.9944500
0
LINE
  8
0
 10
     31.8000000
 20
     -5.9944500
 11
     31.9000000
 21
     -5.9936400
0
LINE
  8
0
 10
     31.9000000
 20
     -5.9936400
 11
     32.0000000
 21
     -5.9927900
0
LINE
  8
0
 10
     32.0000000
 20
     -5.9927900
 11
     32.1000000
 21
     -5.9918900
0
LINE
  8
0
 10
     32.1000000
 20
     -5.9918900
 11
     32.2000000
 21
     -5.9909600
0
LINE
  8
0
 10
     32.2000000
 20
     -5.9909600
 11
     32.3000000
 21
     -5.9899800
0
LINE
  8
0
 10
     32.3000000
 20
     -5.9899800
 11
     32.4000000
 21
     -5.9889600
0
LINE
  8
0
 10
     32.4000000
 20
     -5.9889600
 11
     32.5000000
 21
     -5.9879000
0
LINE
  8
0
 10
     32.5000000
 20
     -5.9879000
 11
     32.6000000
 21
     -5.9868000
0
LINE
  8
0
 10
     32.6000000
 20
     -5.9868000
 11
     32.7000000
 21
     -5.9856600
0
LINE
  8
0
 10
     32.7000000
 20
     -5.9856600
 11
     32.8000000
 21
     -5.9844800
0
LINE
  8
0
 10
     32.8000000
 20
     -5.9844800
 11
     32.9000000
 21
     -5.9832600
0
LINE
  8
0
 10
     32.9000000
 20
     -5.9832600
 11
     33.0000000
 21
     -5.9820000
0
LINE
  8
0
 10
     33.0000000
 20
     -5.9820000
 11
     33.1000000
 21
     -5.9807000
0
LINE
  8
0
 10
     33.1000000
 20
     -5.9807000
 11
     33.2000000
 21
     -5.9793600
0
LINE
  8
0
 10
     33.2000000
 20
     -5.9793600
 11
     33.3000000
 21
     -5.9779800
0
LINE
  8
0
 10
     33.3000000
 20
     -5.9779800
 11
     33.4000000
 21
     -5.9765600
0
LINE
  8
0
 10
     33.4000000
 20
     -5.9765600
 11
     33.5000000
 21
     -5.9751000
0
LINE
  8
0
 10
     33.5000000
 20
     -5.9751000
 11
     33.6000000
 21
     -5.9736000
0
LINE
  8
0
 10
     33.6000000
 20
     -5.9736000
 11
     33.7000000
 21
     -5.9720700
0
LINE
  8
0
 10
     33.7000000
 20
     -5.9720700
 11
     33.8000000
 21
     -5.9704900
0
LINE
  8
0
 10
     33.8000000
 20
     -5.9704900
 11
     33.9000000
 21
     -5.9688800
0
LINE
  8
0
 10
     33.9000000
 20
     -5.9688800
 11
     34.0000000
 21
     -5.9672300
0
LINE
  8
0
 10
     34.0000000
 20
     -5.9672300
 11
     34.1000000
 21
     -5.9655300
0
LINE
  8
0
 10
     34.1000000
 20
     -5.9655300
 11
     34.2000000
 21
     -5.9638100
0
LINE
  8
0
 10
     34.2000000
 20
     -5.9638100
 11
     34.3000000
 21
     -5.9620400
0
LINE
  8
0
 10
     34.3000000
 20
     -5.9620400
 11
     34.4000000
 21
     -5.9602300
0
LINE
  8
0
 10
     34.4000000
 20
     -5.9602300
 11
     34.5000000
 21
     -5.9583900
0
LINE
  8
0
 10
     34.5000000
 20
     -5.9583900
 11
     34.6000000
 21
     -5.9565100
0
LINE
  8
0
 10
     34.6000000
 20
     -5.9565100
 11
     34.7000000
 21
     -5.9545900
0
LINE
  8
0
 10
     34.7000000
 20
     -5.9545900
 11
     34.8000000
 21
     -5.9526400
0
LINE
  8
0
 10
     34.8000000
 20
     -5.9526400
 11
     34.9000000
 21
     -5.9506500
0
LINE
  8
0
 10
     34.9000000
 20
     -5.9506500
 11
     35.0000000
 21
     -5.9486200
0
LINE
  8
0
 10
     35.0000000
 20
     -5.9486200
 11
     35.1000000
 21
     -5.9465500
0
LINE
  8
0
 10
     35.1000000
 20
     -5.9465500
 11
     35.2000000
 21
     -5.9444500
0
LINE
  8
0
 10
     35.2000000
 20
     -5.9444500
 11
     35.3000000
 21
     -5.9423100
0
LINE
  8
0
 10
     35.3000000
 20
     -5.9423100
 11
     35.4000000
 21
     -5.9401400
0
LINE
  8
0
 10
     35.4000000
 20
     -5.9401400
 11
     35.5000000
 21
     -5.9379200
0
LINE
  8
0
 10
     35.5000000
 20
     -5.9379200
 11
     35.6000000
 21
     -5.9356800
0
LINE
  8
0
 10
     35.6000000
 20
     -5.9356800
 11
     35.7000000
 21
     -5.9333900
0
LINE
  8
0
 10
     35.7000000
 20
     -5.9333900
 11
     35.8000000
 21
     -5.9310700
0
LINE
  8
0
 10
     35.8000000
 20
     -5.9310700
 11
     35.9000000
 21
     -5.9287200
0
LINE
  8
0
 10
     35.9000000
 20
     -5.9287200
 11
     36.0000000
 21
     -5.9263300
0
LINE
  8
0
 10
     36.0000000
 20
     -5.9263300
 11
     36.1000000
 21
     -5.9239000
0
LINE
  8
0
 10
     36.1000000
 20
     -5.9239000
 11
     36.2000000
 21
     -5.9214400
0
LINE
  8
0
 10
     36.2000000
 20
     -5.9214400
 11
     36.3000000
 21
     -5.9189400
0
LINE
  8
0
 10
     36.3000000
 20
     -5.9189400
 11
     36.4000000
 21
     -5.9164100
0
LINE
  8
0
 10
     36.4000000
 20
     -5.9164100
 11
     36.5000000
 21
     -5.9138500
0
LINE
  8
0
 10
     36.5000000
 20
     -5.9138500
 11
     36.6000000
 21
     -5.9112400
0
LINE
  8
0
 10
     36.6000000
 20
     -5.9112400
 11
     36.7000000
 21
     -5.9086100
0
LINE
  8
0
 10
     36.7000000
 20
     -5.9086100
 11
     36.8000000
 21
     -5.9059400
0
LINE
  8
0
 10
     36.8000000
 20
     -5.9059400
 11
     36.9000000
 21
     -5.9032300
0
LINE
  8
0
 10
     36.9000000
 20
     -5.9032300
 11
     37.0000000
 21
     -5.9004900
0
LINE
  8
0
 10
     37.0000000
 20
     -5.9004900
 11
     37.1000000
 21
     -5.8977200
0
LINE
  8
0
 10
     37.1000000
 20
     -5.8977200
 11
     37.2000000
 21
     -5.8949100
0
LINE
  8
0
 10
     37.2000000
 20
     -5.8949100
 11
     37.3000000
 21
     -5.8920700
0
LINE
  8
0
 10
     37.3000000
 20
     -5.8920700
 11
     37.4000000
 21
     -5.8892000
0
LINE
  8
0
 10
     37.4000000
 20
     -5.8892000
 11
     37.5000000
 21
     -5.8862900
0
LINE
  8
0
 10
     37.5000000
 20
     -5.8862900
 11
     37.6000000
 21
     -5.8833500
0
LINE
  8
0
 10
     37.6000000
 20
     -5.8833500
 11
     37.7000000
 21
     -5.8803700
0
LINE
  8
0
 10
     37.7000000
 20
     -5.8803700
 11
     37.8000000
 21
     -5.8773600
0
LINE
  8
0
 10
     37.8000000
 20
     -5.8773600
 11
     37.9000000
 21
     -5.8743200
0
LINE
  8
0
 10
     37.9000000
 20
     -5.8743200
 11
     38.0000000
 21
     -5.8712500
0
LINE
  8
0
 10
     38.0000000
 20
     -5.8712500
 11
     38.1000000
 21
     -5.8681400
0
LINE
  8
0
 10
     38.1000000
 20
     -5.8681400
 11
     38.2000000
 21
     -5.8650000
0
LINE
  8
0
 10
     38.2000000
 20
     -5.8650000
 11
     38.3000000
 21
     -5.8618300
0
LINE
  8
0
 10
     38.3000000
 20
     -5.8618300
 11
     38.4000000
 21
     -5.8586200
0
LINE
  8
0
 10
     38.4000000
 20
     -5.8586200
 11
     38.5000000
 21
     -5.8553800
0
LINE
  8
0
 10
     38.5000000
 20
     -5.8553800
 11
     38.6000000
 21
     -5.8521100
0
LINE
  8
0
 10
     38.6000000
 20
     -5.8521100
 11
     38.7000000
 21
     -5.8488100
0
LINE
  8
0
 10
     38.7000000
 20
     -5.8488100
 11
     38.8000000
 21
     -5.8454800
0
LINE
  8
0
 10
     38.8000000
 20
     -5.8454800
 11
     38.9000000
 21
     -5.8421100
0
LINE
  8
0
 10
     38.9000000
 20
     -5.8421100
 11
     39.0000000
 21
     -5.8387100
0
LINE
  8
0
 10
     39.0000000
 20
     -5.8387100
 11
     39.1000000
 21
     -5.8352800
0
LINE
  8
0
 10
     39.1000000
 20
     -5.8352800
 11
     39.2000000
 21
     -5.8318200
0
LINE
  8
0
 10
     39.2000000
 20
     -5.8318200
 11
     39.3000000
 21
     -5.8283300
0
LINE
  8
0
 10
     39.3000000
 20
     -5.8283300
 11
     39.4000000
 21
     -5.8248100
0
LINE
  8
0
 10
     39.4000000
 20
     -5.8248100
 11
     39.5000000
 21
     -5.8212500
0
LINE
  8
0
 10
     39.5000000
 20
     -5.8212500
 11
     39.6000000
 21
     -5.8176600
0
LINE
  8
0
 10
     39.6000000
 20
     -5.8176600
 11
     39.7000000
 21
     -5.8140500
0
LINE
  8
0
 10
     39.7000000
 20
     -5.8140500
 11
     39.8000000
 21
     -5.8104000
0
LINE
  8
0
 10
     39.8000000
 20
     -5.8104000
 11
     39.9000000
 21
     -5.8067200
0
LINE
  8
0
 10
     39.9000000
 20
     -5.8067200
 11
     40.0000000
 21
     -5.8030100
0
LINE
  8
0
 10
     40.0000000
 20
     -5.8030100
 11
     40.1000000
 21
     -5.7992700
0
LINE
  8
0
 10
     40.1000000
 20
     -5.7992700
 11
     40.2000000
 21
     -5.7955000
0
LINE
  8
0
 10
     40.2000000
 20
     -5.7955000
 11
     40.3000000
 21
     -5.7917000
0
LINE
  8
0
 10
     40.3000000
 20
     -5.7917000
 11
     40.4000000
 21
     -5.7878700
0
LINE
  8
0
 10
     40.4000000
 20
     -5.7878700
 11
     40.5000000
 21
     -5.7840100
0
LINE
  8
0
 10
     40.5000000
 20
     -5.7840100
 11
     40.6000000
 21
     -5.7801200
0
LINE
  8
0
 10
     40.6000000
 20
     -5.7801200
 11
     40.7000000
 21
     -5.7762000
0
LINE
  8
0
 10
     40.7000000
 20
     -5.7762000
 11
     40.8000000
 21
     -5.7722400
0
LINE
  8
0
 10
     40.8000000
 20
     -5.7722400
 11
     40.9000000
 21
     -5.7682600
0
LINE
  8
0
 10
     40.9000000
 20
     -5.7682600
 11
     41.0000000
 21
     -5.7642500
0
LINE
  8
0
 10
     41.0000000
 20
     -5.7642500
 11
     41.1000000
 21
     -5.7602100
0
LINE
  8
0
 10
     41.1000000
 20
     -5.7602100
 11
     41.2000000
 21
     -5.7561500
0
LINE
  8
0
 10
     41.2000000
 20
     -5.7561500
 11
     41.3000000
 21
     -5.7520500
0
LINE
  8
0
 10
     41.3000000
 20
     -5.7520500
 11
     41.4000000
 21
     -5.7479200
0
LINE
  8
0
 10
     41.4000000
 20
     -5.7479200
 11
     41.5000000
 21
     -5.7437600
0
LINE
  8
0
 10
     41.5000000
 20
     -5.7437600
 11
     41.6000000
 21
     -5.7395800
0
LINE
  8
0
 10
     41.6000000
 20
     -5.7395800
 11
     41.7000000
 21
     -5.7353600
0
LINE
  8
0
 10
     41.7000000
 20
     -5.7353600
 11
     41.8000000
 21
     -5.7311200
0
LINE
  8
0
 10
     41.8000000
 20
     -5.7311200
 11
     41.9000000
 21
     -5.7268500
0
LINE
  8
0
 10
     41.9000000
 20
     -5.7268500
 11
     42.0000000
 21
     -5.7225500
0
LINE
  8
0
 10
     42.0000000
 20
     -5.7225500
 11
     42.1000000
 21
     -5.7182200
0
LINE
  8
0
 10
     42.1000000
 20
     -5.7182200
 11
     42.2000000
 21
     -5.7138600
0
LINE
  8
0
 10
     42.2000000
 20
     -5.7138600
 11
     42.3000000
 21
     -5.7094800
0
LINE
  8
0
 10
     42.3000000
 20
     -5.7094800
 11
     42.4000000
 21
     -5.7050600
0
LINE
  8
0
 10
     42.4000000
 20
     -5.7050600
 11
     42.5000000
 21
     -5.7006200
0
LINE
  8
0
 10
     42.5000000
 20
     -5.7006200
 11
     42.6000000
 21
     -5.6961500
0
LINE
  8
0
 10
     42.6000000
 20
     -5.6961500
 11
     42.7000000
 21
     -5.6916500
0
LINE
  8
0
 10
     42.7000000
 20
     -5.6916500
 11
     42.8000000
 21
     -5.6871300
0
LINE
  8
0
 10
     42.8000000
 20
     -5.6871300
 11
     42.9000000
 21
     -5.6825800
0
LINE
  8
0
 10
     42.9000000
 20
     -5.6825800
 11
     43.0000000
 21
     -5.6780000
0
LINE
  8
0
 10
     43.0000000
 20
     -5.6780000
 11
     43.1000000
 21
     -5.6733900
0
LINE
  8
0
 10
     43.1000000
 20
     -5.6733900
 11
     43.2000000
 21
     -5.6687500
0
LINE
  8
0
 10
     43.2000000
 20
     -5.6687500
 11
     43.3000000
 21
     -5.6640900
0
LINE
  8
0
 10
     43.3000000
 20
     -5.6640900
 11
     43.4000000
 21
     -5.6594000
0
LINE
  8
0
 10
     43.4000000
 20
     -5.6594000
 11
     43.5000000
 21
     -5.6546800
0
LINE
  8
0
 10
     43.5000000
 20
     -5.6546800
 11
     43.6000000
 21
     -5.6499400
0
LINE
  8
0
 10
     43.6000000
 20
     -5.6499400
 11
     43.7000000
 21
     -5.6451700
0
LINE
  8
0
 10
     43.7000000
 20
     -5.6451700
 11
     43.8000000
 21
     -5.6403700
0
LINE
  8
0
 10
     43.8000000
 20
     -5.6403700
 11
     43.9000000
 21
     -5.6355500
0
LINE
  8
0
 10
     43.9000000
 20
     -5.6355500
 11
     44.0000000
 21
     -5.6306900
0
LINE
  8
0
 10
     44.0000000
 20
     -5.6306900
 11
     44.1000000
 21
     -5.6258200
0
LINE
  8
0
 10
     44.1000000
 20
     -5.6258200
 11
     44.2000000
 21
     -5.6209100
0
LINE
  8
0
 10
     44.2000000
 20
     -5.6209100
 11
     44.3000000
 21
     -5.6159800
0
LINE
  8
0
 10
     44.3000000
 20
     -5.6159800
 11
     44.4000000
 21
     -5.6110300
0
LINE
  8
0
 10
     44.4000000
 20
     -5.6110300
 11
     44.5000000
 21
     -5.6060400
0
LINE
  8
0
 10
     44.5000000
 20
     -5.6060400
 11
     44.6000000
 21
     -5.6010300
0
LINE
  8
0
 10
     44.6000000
 20
     -5.6010300
 11
     44.7000000
 21
     -5.5960000
0
LINE
  8
0
 10
     44.7000000
 20
     -5.5960000
 11
     44.8000000
 21
     -5.5909400
0
LINE
  8
0
 10
     44.8000000
 20
     -5.5909400
 11
     44.9000000
 21
     -5.5858500
0
LINE
  8
0
 10
     44.9000000
 20
     -5.5858500
 11
     45.0000000
 21
     -5.5807400
0
LINE
  8
0
 10
     45.0000000
 20
     -5.5807400
 11
     45.1000000
 21
     -5.5756000
0
LINE
  8
0
 10
     45.1000000
 20
     -5.5756000
 11
     45.2000000
 21
     -5.5704300
0
LINE
  8
0
 10
     45.2000000
 20
     -5.5704300
 11
     45.3000000
 21
     -5.5652400
0
LINE
  8
0
 10
     45.3000000
 20
     -5.5652400
 11
     45.4000000
 21
     -5.5600300
0
LINE
  8
0
 10
     45.4000000
 20
     -5.5600300
 11
     45.5000000
 21
     -5.5547900
0
LINE
  8
0
 10
     45.5000000
 20
     -5.5547900
 11
     45.6000000
 21
     -5.5495200
0
LINE
  8
0
 10
     45.6000000
 20
     -5.5495200
 11
     45.7000000
 21
     -5.5442300
0
LINE
  8
0
 10
     45.7000000
 20
     -5.5442300
 11
     45.8000000
 21
     -5.5389200
0
LINE
  8
0
 10
     45.8000000
 20
     -5.5389200
 11
     45.9000000
 21
     -5.5335800
0
LINE
  8
0
 10
     45.9000000
 20
     -5.5335800
 11
     46.0000000
 21
     -5.5282100
0
LINE
  8
0
 10
     46.0000000
 20
     -5.5282100
 11
     46.1000000
 21
     -5.5228200
0
LINE
  8
0
 10
     46.1000000
 20
     -5.5228200
 11
     46.2000000
 21
     -5.5174000
0
LINE
  8
0
 10
     46.2000000
 20
     -5.5174000
 11
     46.3000000
 21
     -5.5119600
0
LINE
  8
0
 10
     46.3000000
 20
     -5.5119600
 11
     46.4000000
 21
     -5.5065000
0
LINE
  8
0
 10
     46.4000000
 20
     -5.5065000
 11
     46.5000000
 21
     -5.5010100
0
LINE
  8
0
 10
     46.5000000
 20
     -5.5010100
 11
     46.6000000
 21
     -5.4955000
0
LINE
  8
0
 10
     46.6000000
 20
     -5.4955000
 11
     46.7000000
 21
     -5.4899600
0
LINE
  8
0
 10
     46.7000000
 20
     -5.4899600
 11
     46.8000000
 21
     -5.4843900
0
LINE
  8
0
 10
     46.8000000
 20
     -5.4843900
 11
     46.9000000
 21
     -5.4788100
0
LINE
  8
0
 10
     46.9000000
 20
     -5.4788100
 11
     47.0000000
 21
     -5.4732000
0
LINE
  8
0
 10
     47.0000000
 20
     -5.4732000
 11
     47.1000000
 21
     -5.4675600
0
LINE
  8
0
 10
     47.1000000
 20
     -5.4675600
 11
     47.2000000
 21
     -5.4619000
0
LINE
  8
0
 10
     47.2000000
 20
     -5.4619000
 11
     47.3000000
 21
     -5.4562200
0
LINE
  8
0
 10
     47.3000000
 20
     -5.4562200
 11
     47.4000000
 21
     -5.4505100
0
LINE
  8
0
 10
     47.4000000
 20
     -5.4505100
 11
     47.5000000
 21
     -5.4447800
0
LINE
  8
0
 10
     47.5000000
 20
     -5.4447800
 11
     47.6000000
 21
     -5.4390300
0
LINE
  8
0
 10
     47.6000000
 20
     -5.4390300
 11
     47.7000000
 21
     -5.4332500
0
LINE
  8
0
 10
     47.7000000
 20
     -5.4332500
 11
     47.8000000
 21
     -5.4274500
0
LINE
  8
0
 10
     47.8000000
 20
     -5.4274500
 11
     47.9000000
 21
     -5.4216300
0
LINE
  8
0
 10
     47.9000000
 20
     -5.4216300
 11
     48.0000000
 21
     -5.4157800
0
LINE
  8
0
 10
     48.0000000
 20
     -5.4157800
 11
     48.1000000
 21
     -5.4099100
0
LINE
  8
0
 10
     48.1000000
 20
     -5.4099100
 11
     48.2000000
 21
     -5.4040100
0
LINE
  8
0
 10
     48.2000000
 20
     -5.4040100
 11
     48.3000000
 21
     -5.3981000
0
LINE
  8
0
 10
     48.3000000
 20
     -5.3981000
 11
     48.4000000
 21
     -5.3921600
0
LINE
  8
0
 10
     48.4000000
 20
     -5.3921600
 11
     48.5000000
 21
     -5.3861900
0
LINE
  8
0
 10
     48.5000000
 20
     -5.3861900
 11
     48.6000000
 21
     -5.3802100
0
LINE
  8
0
 10
     48.6000000
 20
     -5.3802100
 11
     48.7000000
 21
     -5.3742000
0
LINE
  8
0
 10
     48.7000000
 20
     -5.3742000
 11
     48.8000000
 21
     -5.3681600
0
LINE
  8
0
 10
     48.8000000
 20
     -5.3681600
 11
     48.9000000
 21
     -5.3621100
0
LINE
  8
0
 10
     48.9000000
 20
     -5.3621100
 11
     49.0000000
 21
     -5.3560300
0
LINE
  8
0
 10
     49.0000000
 20
     -5.3560300
 11
     49.1000000
 21
     -5.3499300
0
LINE
  8
0
 10
     49.1000000
 20
     -5.3499300
 11
     49.2000000
 21
     -5.3438100
0
LINE
  8
0
 10
     49.2000000
 20
     -5.3438100
 11
     49.3000000
 21
     -5.3376600
0
LINE
  8
0
 10
     49.3000000
 20
     -5.3376600
 11
     49.4000000
 21
     -5.3315000
0
LINE
  8
0
 10
     49.4000000
 20
     -5.3315000
 11
     49.5000000
 21
     -5.3253100
0
LINE
  8
0
 10
     49.5000000
 20
     -5.3253100
 11
     49.6000000
 21
     -5.3190900
0
LINE
  8
0
 10
     49.6000000
 20
     -5.3190900
 11
     49.7000000
 21
     -5.3128600
0
LINE
  8
0
 10
     49.7000000
 20
     -5.3128600
 11
     49.8000000
 21
     -5.3066000
0
LINE
  8
0
 10
     49.8000000
 20
     -5.3066000
 11
     49.9000000
 21
     -5.3003300
0
LINE
  8
0
 10
     49.9000000
 20
     -5.3003300
 11
     50.0000000
 21
     -5.2940300
0
LINE
  8
0
 10
     50.0000000
 20
     -5.2940300
 11
     50.1000000
 21
     -5.2877000
0
LINE
  8
0
 10
     50.1000000
 20
     -5.2877000
 11
     50.2000000
 21
     -5.2813600
0
LINE
  8
0
 10
     50.2000000
 20
     -5.2813600
 11
     50.3000000
 21
     -5.2749900
0
LINE
  8
0
 10
     50.3000000
 20
     -5.2749900
 11
     50.4000000
 21
     -5.2686100
0
LINE
  8
0
 10
     50.4000000
 20
     -5.2686100
 11
     50.5000000
 21
     -5.2622000
0
LINE
  8
0
 10
     50.5000000
 20
     -5.2622000
 11
     50.6000000
 21
     -5.2557700
0
LINE
  8
0
 10
     50.6000000
 20
     -5.2557700
 11
     50.7000000
 21
     -5.2493200
0
LINE
  8
0
 10
     50.7000000
 20
     -5.2493200
 11
     50.8000000
 21
     -5.2428400
0
LINE
  8
0
 10
     50.8000000
 20
     -5.2428400
 11
     50.9000000
 21
     -5.2363500
0
LINE
  8
0
 10
     50.9000000
 20
     -5.2363500
 11
     51.0000000
 21
     -5.2298300
0
LINE
  8
0
 10
     51.0000000
 20
     -5.2298300
 11
     51.1000000
 21
     -5.2232900
0
LINE
  8
0
 10
     51.1000000
 20
     -5.2232900
 11
     51.2000000
 21
     -5.2167400
0
LINE
  8
0
 10
     51.2000000
 20
     -5.2167400
 11
     51.3000000
 21
     -5.2101600
0
LINE
  8
0
 10
     51.3000000
 20
     -5.2101600
 11
     51.4000000
 21
     -5.2035600
0
LINE
  8
0
 10
     51.4000000
 20
     -5.2035600
 11
     51.5000000
 21
     -5.1969300
0
LINE
  8
0
 10
     51.5000000
 20
     -5.1969300
 11
     51.6000000
 21
     -5.1902900
0
LINE
  8
0
 10
     51.6000000
 20
     -5.1902900
 11
     51.7000000
 21
     -5.1836300
0
LINE
  8
0
 10
     51.7000000
 20
     -5.1836300
 11
     51.8000000
 21
     -5.1769400
0
LINE
  8
0
 10
     51.8000000
 20
     -5.1769400
 11
     51.9000000
 21
     -5.1702400
0
LINE
  8
0
 10
     51.9000000
 20
     -5.1702400
 11
     52.0000000
 21
     -5.1635100
0
LINE
  8
0
 10
     52.0000000
 20
     -5.1635100
 11
     52.1000000
 21
     -5.1567700
0
LINE
  8
0
 10
     52.1000000
 20
     -5.1567700
 11
     52.2000000
 21
     -5.1500000
0
LINE
  8
0
 10
     52.2000000
 20
     -5.1500000
 11
     52.3000000
 21
     -5.1432100
0
LINE
  8
0
 10
     52.3000000
 20
     -5.1432100
 11
     52.4000000
 21
     -5.1364100
0
LINE
  8
0
 10
     52.4000000
 20
     -5.1364100
 11
     52.5000000
 21
     -5.1295800
0
LINE
  8
0
 10
     52.5000000
 20
     -5.1295800
 11
     52.6000000
 21
     -5.1227300
0
LINE
  8
0
 10
     52.6000000
 20
     -5.1227300
 11
     52.7000000
 21
     -5.1158600
0
LINE
  8
0
 10
     52.7000000
 20
     -5.1158600
 11
     52.8000000
 21
     -5.1089700
0
LINE
  8
0
 10
     52.8000000
 20
     -5.1089700
 11
     52.9000000
 21
     -5.1020600
0
LINE
  8
0
 10
     52.9000000
 20
     -5.1020600
 11
     53.0000000
 21
     -5.0951400
0
LINE
  8
0
 10
     53.0000000
 20
     -5.0951400
 11
     53.1000000
 21
     -5.0881900
0
LINE
  8
0
 10
     53.1000000
 20
     -5.0881900
 11
     53.2000000
 21
     -5.0812200
0
LINE
  8
0
 10
     53.2000000
 20
     -5.0812200
 11
     53.3000000
 21
     -5.0742300
0
LINE
  8
0
 10
     53.3000000
 20
     -5.0742300
 11
     53.4000000
 21
     -5.0672200
0
LINE
  8
0
 10
     53.4000000
 20
     -5.0672200
 11
     53.5000000
 21
     -5.0601900
0
LINE
  8
0
 10
     53.5000000
 20
     -5.0601900
 11
     53.6000000
 21
     -5.0531400
0
LINE
  8
0
 10
     53.6000000
 20
     -5.0531400
 11
     53.7000000
 21
     -5.0460800
0
LINE
  8
0
 10
     53.7000000
 20
     -5.0460800
 11
     53.8000000
 21
     -5.0389900
0
LINE
  8
0
 10
     53.8000000
 20
     -5.0389900
 11
     53.9000000
 21
     -5.0318800
0
LINE
  8
0
 10
     53.9000000
 20
     -5.0318800
 11
     54.0000000
 21
     -5.0247500
0
LINE
  8
0
 10
     54.0000000
 20
     -5.0247500
 11
     54.1000000
 21
     -5.0176100
0
LINE
  8
0
 10
     54.1000000
 20
     -5.0176100
 11
     54.2000000
 21
     -5.0104400
0
LINE
  8
0
 10
     54.2000000
 20
     -5.0104400
 11
     54.3000000
 21
     -5.0032600
0
LINE
  8
0
 10
     54.3000000
 20
     -5.0032600
 11
     54.4000000
 21
     -4.9960500
0
LINE
  8
0
 10
     54.4000000
 20
     -4.9960500
 11
     54.5000000
 21
     -4.9888300
0
LINE
  8
0
 10
     54.5000000
 20
     -4.9888300
 11
     54.6000000
 21
     -4.9815900
0
LINE
  8
0
 10
     54.6000000
 20
     -4.9815900
 11
     54.7000000
 21
     -4.9743300
0
LINE
  8
0
 10
     54.7000000
 20
     -4.9743300
 11
     54.8000000
 21
     -4.9670500
0
LINE
  8
0
 10
     54.8000000
 20
     -4.9670500
 11
     54.9000000
 21
     -4.9597500
0
LINE
  8
0
 10
     54.9000000
 20
     -4.9597500
 11
     55.0000000
 21
     -4.9524300
0
LINE
  8
0
 10
     55.0000000
 20
     -4.9524300
 11
     55.1000000
 21
     -4.9450900
0
LINE
  8
0
 10
     55.1000000
 20
     -4.9450900
 11
     55.2000000
 21
     -4.9377300
0
LINE
  8
0
 10
     55.2000000
 20
     -4.9377300
 11
     55.3000000
 21
     -4.9303600
0
LINE
  8
0
 10
     55.3000000
 20
     -4.9303600
 11
     55.4000000
 21
     -4.9229600
0
LINE
  8
0
 10
     55.4000000
 20
     -4.9229600
 11
     55.5000000
 21
     -4.9155500
0
LINE
  8
0
 10
     55.5000000
 20
     -4.9155500
 11
     55.6000000
 21
     -4.9081200
0
LINE
  8
0
 10
     55.6000000
 20
     -4.9081200
 11
     55.7000000
 21
     -4.9006700
0
LINE
  8
0
 10
     55.7000000
 20
     -4.9006700
 11
     55.8000000
 21
     -4.8932000
0
LINE
  8
0
 10
     55.8000000
 20
     -4.8932000
 11
     55.9000000
 21
     -4.8857100
0
LINE
  8
0
 10
     55.9000000
 20
     -4.8857100
 11
     56.0000000
 21
     -4.8782100
0
LINE
  8
0
 10
     56.0000000
 20
     -4.8782100
 11
     56.1000000
 21
     -4.8706800
0
LINE
  8
0
 10
     56.1000000
 20
     -4.8706800
 11
     56.2000000
 21
     -4.8631400
0
LINE
  8
0
 10
     56.2000000
 20
     -4.8631400
 11
     56.3000000
 21
     -4.8555800
0
LINE
  8
0
 10
     56.3000000
 20
     -4.8555800
 11
     56.4000000
 21
     -4.8480000
0
LINE
  8
0
 10
     56.4000000
 20
     -4.8480000
 11
     56.5000000
 21
     -4.8404000
0
LINE
  8
0
 10
     56.5000000
 20
     -4.8404000
 11
     56.6000000
 21
     -4.8327900
0
LINE
  8
0
 10
     56.6000000
 20
     -4.8327900
 11
     56.7000000
 21
     -4.8251600
0
LINE
  8
0
 10
     56.7000000
 20
     -4.8251600
 11
     56.8000000
 21
     -4.8175000
0
LINE
  8
0
 10
     56.8000000
 20
     -4.8175000
 11
     56.9000000
 21
     -4.8098300
0
LINE
  8
0
 10
     56.9000000
 20
     -4.8098300
 11
     57.0000000
 21
     -4.8021500
0
LINE
  8
0
 10
     57.0000000
 20
     -4.8021500
 11
     57.1000000
 21
     -4.7944400
0
LINE
  8
0
 10
     57.1000000
 20
     -4.7944400
 11
     57.2000000
 21
     -4.7867200
0
LINE
  8
0
 10
     57.2000000
 20
     -4.7867200
 11
     57.3000000
 21
     -4.7789800
0
LINE
  8
0
 10
     57.3000000
 20
     -4.7789800
 11
     57.4000000
 21
     -4.7712200
0
LINE
  8
0
 10
     57.4000000
 20
     -4.7712200
 11
     57.5000000
 21
     -4.7634400
0
LINE
  8
0
 10
     57.5000000
 20
     -4.7634400
 11
     57.6000000
 21
     -4.7556500
0
LINE
  8
0
 10
     57.6000000
 20
     -4.7556500
 11
     57.7000000
 21
     -4.7478300
0
LINE
  8
0
 10
     57.7000000
 20
     -4.7478300
 11
     57.8000000
 21
     -4.7400000
0
LINE
  8
0
 10
     57.8000000
 20
     -4.7400000
 11
     57.9000000
 21
     -4.7321600
0
LINE
  8
0
 10
     57.9000000
 20
     -4.7321600
 11
     58.0000000
 21
     -4.7242900
0
LINE
  8
0
 10
     58.0000000
 20
     -4.7242900
 11
     58.1000000
 21
     -4.7164100
0
LINE
  8
0
 10
     58.1000000
 20
     -4.7164100
 11
     58.2000000
 21
     -4.7085100
0
LINE
  8
0
 10
     58.2000000
 20
     -4.7085100
 11
     58.3000000
 21
     -4.7005900
0
LINE
  8
0
 10
     58.3000000
 20
     -4.7005900
 11
     58.4000000
 21
     -4.6926600
0
LINE
  8
0
 10
     58.4000000
 20
     -4.6926600
 11
     58.5000000
 21
     -4.6847000
0
LINE
  8
0
 10
     58.5000000
 20
     -4.6847000
 11
     58.6000000
 21
     -4.6767300
0
LINE
  8
0
 10
     58.6000000
 20
     -4.6767300
 11
     58.7000000
 21
     -4.6687500
0
LINE
  8
0
 10
     58.7000000
 20
     -4.6687500
 11
     58.8000000
 21
     -4.6607400
0
LINE
  8
0
 10
     58.8000000
 20
     -4.6607400
 11
     58.9000000
 21
     -4.6527200
0
LINE
  8
0
 10
     58.9000000
 20
     -4.6527200
 11
     59.0000000
 21
     -4.6446800
0
LINE
  8
0
 10
     59.0000000
 20
     -4.6446800
 11
     59.1000000
 21
     -4.6366300
0
LINE
  8
0
 10
     59.1000000
 20
     -4.6366300
 11
     59.2000000
 21
     -4.6285600
0
LINE
  8
0
 10
     59.2000000
 20
     -4.6285600
 11
     59.3000000
 21
     -4.6204700
0
LINE
  8
0
 10
     59.3000000
 20
     -4.6204700
 11
     59.4000000
 21
     -4.6123600
0
LINE
  8
0
 10
     59.4000000
 20
     -4.6123600
 11
     59.5000000
 21
     -4.6042400
0
LINE
  8
0
 10
     59.5000000
 20
     -4.6042400
 11
     59.6000000
 21
     -4.5961000
0
LINE
  8
0
 10
     59.6000000
 20
     -4.5961000
 11
     59.7000000
 21
     -4.5879400
0
LINE
  8
0
 10
     59.7000000
 20
     -4.5879400
 11
     59.8000000
 21
     -4.5797700
0
LINE
  8
0
 10
     59.8000000
 20
     -4.5797700
 11
     59.9000000
 21
     -4.5715800
0
LINE
  8
0
 10
     59.9000000
 20
     -4.5715800
 11
     60.0000000
 21
     -4.5633700
0
LINE
  8
0
 10
     60.0000000
 20
     -4.5633700
 11
     60.1000000
 21
     -4.5551500
0
LINE
  8
0
 10
     60.1000000
 20
     -4.5551500
 11
     60.2000000
 21
     -4.5469100
0
LINE
  8
0
 10
     60.2000000
 20
     -4.5469100
 11
     60.3000000
 21
     -4.5386500
0
LINE
  8
0
 10
     60.3000000
 20
     -4.5386500
 11
     60.4000000
 21
     -4.5303800
0
LINE
  8
0
 10
     60.4000000
 20
     -4.5303800
 11
     60.5000000
 21
     -4.5220800
0
LINE
  8
0
 10
     60.5000000
 20
     -4.5220800
 11
     60.6000000
 21
     -4.5137800
0
LINE
  8
0
 10
     60.6000000
 20
     -4.5137800
 11
     60.7000000
 21
     -4.5054600
0
LINE
  8
0
 10
     60.7000000
 20
     -4.5054600
 11
     60.8000000
 21
     -4.4971200
0
LINE
  8
0
 10
     60.8000000
 20
     -4.4971200
 11
     60.9000000
 21
     -4.4887600
0
LINE
  8
0
 10
     60.9000000
 20
     -4.4887600
 11
     61.0000000
 21
     -4.4803900
0
LINE
  8
0
 10
     61.0000000
 20
     -4.4803900
 11
     61.1000000
 21
     -4.4720000
0
LINE
  8
0
 10
     61.1000000
 20
     -4.4720000
 11
     61.2000000
 21
     -4.4635900
0
LINE
  8
0
 10
     61.2000000
 20
     -4.4635900
 11
     61.3000000
 21
     -4.4551700
0
LINE
  8
0
 10
     61.3000000
 20
     -4.4551700
 11
     61.4000000
 21
     -4.4467400
0
LINE
  8
0
 10
     61.4000000
 20
     -4.4467400
 11
     61.5000000
 21
     -4.4382800
0
LINE
  8
0
 10
     61.5000000
 20
     -4.4382800
 11
     61.6000000
 21
     -4.4298100
0
LINE
  8
0
 10
     61.6000000
 20
     -4.4298100
 11
     61.7000000
 21
     -4.4213300
0
LINE
  8
0
 10
     61.7000000
 20
     -4.4213300
 11
     61.8000000
 21
     -4.4128300
0
LINE
  8
0
 10
     61.8000000
 20
     -4.4128300
 11
     61.9000000
 21
     -4.4043100
0
LINE
  8
0
 10
     61.9000000
 20
     -4.4043100
 11
     62.0000000
 21
     -4.3957800
0
LINE
  8
0
 10
     62.0000000
 20
     -4.3957800
 11
     62.1000000
 21
     -4.3872300
0
LINE
  8
0
 10
     62.1000000
 20
     -4.3872300
 11
     62.2000000
 21
     -4.3786600
0
LINE
  8
0
 10
     62.2000000
 20
     -4.3786600
 11
     62.3000000
 21
     -4.3700800
0
LINE
  8
0
 10
     62.3000000
 20
     -4.3700800
 11
     62.4000000
 21
     -4.3614800
0
LINE
  8
0
 10
     62.4000000
 20
     -4.3614800
 11
     62.5000000
 21
     -4.3528700
0
LINE
  8
0
 10
     62.5000000
 20
     -4.3528700
 11
     62.6000000
 21
     -4.3442400
0
LINE
  8
0
 10
     62.6000000
 20
     -4.3442400
 11
     62.7000000
 21
     -4.3356000
0
LINE
  8
0
 10
     62.7000000
 20
     -4.3356000
 11
     62.8000000
 21
     -4.3269400
0
LINE
  8
0
 10
     62.8000000
 20
     -4.3269400
 11
     62.9000000
 21
     -4.3182600
0
LINE
  8
0
 10
     62.9000000
 20
     -4.3182600
 11
     63.0000000
 21
     -4.3095700
0
LINE
  8
0
 10
     63.0000000
 20
     -4.3095700
 11
     63.1000000
 21
     -4.3008600
0
LINE
  8
0
 10
     63.1000000
 20
     -4.3008600
 11
     63.2000000
 21
     -4.2921400
0
LINE
  8
0
 10
     63.2000000
 20
     -4.2921400
 11
     63.3000000
 21
     -4.2834000
0
LINE
  8
0
 10
     63.3000000
 20
     -4.2834000
 11
     63.4000000
 21
     -4.2746500
0
LINE
  8
0
 10
     63.4000000
 20
     -4.2746500
 11
     63.5000000
 21
     -4.2658800
0
LINE
  8
0
 10
     63.5000000
 20
     -4.2658800
 11
     63.6000000
 21
     -4.2570900
0
LINE
  8
0
 10
     63.6000000
 20
     -4.2570900
 11
     63.7000000
 21
     -4.2482900
0
LINE
  8
0
 10
     63.7000000
 20
     -4.2482900
 11
     63.8000000
 21
     -4.2394800
0
LINE
  8
0
 10
     63.8000000
 20
     -4.2394800
 11
     63.9000000
 21
     -4.2306500
0
LINE
  8
0
 10
     63.9000000
 20
     -4.2306500
 11
     64.0000000
 21
     -4.2218000
0
LINE
  8
0
 10
     64.0000000
 20
     -4.2218000
 11
     64.1000000
 21
     -4.2129400
0
LINE
  8
0
 10
     64.1000000
 20
     -4.2129400
 11
     64.2000000
 21
     -4.2040600
0
LINE
  8
0
 10
     64.2000000
 20
     -4.2040600
 11
     64.3000000
 21
     -4.1951700
0
LINE
  8
0
 10
     64.3000000
 20
     -4.1951700
 11
     64.4000000
 21
     -4.1862600
0
LINE
  8
0
 10
     64.4000000
 20
     -4.1862600
 11
     64.5000000
 21
     -4.1773400
0
LINE
  8
0
 10
     64.5000000
 20
     -4.1773400
 11
     64.6000100
 21
     -4.1684000
0
LINE
  8
0
 10
     64.6000100
 20
     -4.1684000
 11
     64.7000000
 21
     -4.1594500
0
LINE
  8
0
 10
     64.7000000
 20
     -4.1594500
 11
     64.8000000
 21
     -4.1504800
0
LINE
  8
0
 10
     64.8000000
 20
     -4.1504800
 11
     64.9000000
 21
     -4.1414900
0
LINE
  8
0
 10
     64.9000000
 20
     -4.1414900
 11
     65.0000000
 21
     -4.1325000
0
LINE
  8
0
 10
     65.0000000
 20
     -4.1325000
 11
     65.1000100
 21
     -4.1234800
0
LINE
  8
0
 10
     65.1000100
 20
     -4.1234800
 11
     65.2000000
 21
     -4.1144500
0
LINE
  8
0
 10
     65.2000000
 20
     -4.1144500
 11
     65.3000000
 21
     -4.1054100
0
LINE
  8
0
 10
     65.3000000
 20
     -4.1054100
 11
     65.4000000
 21
     -4.0963500
0
LINE
  8
0
 10
     65.4000000
 20
     -4.0963500
 11
     65.5000000
 21
     -4.0872800
0
LINE
  8
0
 10
     65.5000000
 20
     -4.0872800
 11
     65.6000000
 21
     -4.0781900
0
LINE
  8
0
 10
     65.6000000
 20
     -4.0781900
 11
     65.7000000
 21
     -4.0690900
0
LINE
  8
0
 10
     65.7000000
 20
     -4.0690900
 11
     65.8000000
 21
     -4.0599700
0
LINE
  8
0
 10
     65.8000000
 20
     -4.0599700
 11
     65.9000000
 21
     -4.0508400
0
LINE
  8
0
 10
     65.9000000
 20
     -4.0508400
 11
     66.0000000
 21
     -4.0416900
0
LINE
  8
0
 10
     66.0000000
 20
     -4.0416900
 11
     66.1000000
 21
     -4.0325300
0
LINE
  8
0
 10
     66.1000000
 20
     -4.0325300
 11
     66.2000000
 21
     -4.0233500
0
LINE
  8
0
 10
     66.2000000
 20
     -4.0233500
 11
     66.3000000
 21
     -4.0141600
0
LINE
  8
0
 10
     66.3000000
 20
     -4.0141600
 11
     66.3999900
 21
     -4.0049500
0
LINE
  8
0
 10
     66.3999900
 20
     -4.0049500
 11
     66.5000000
 21
     -3.9957300
0
LINE
  8
0
 10
     66.5000000
 20
     -3.9957300
 11
     66.6000000
 21
     -3.9865000
0
LINE
  8
0
 10
     66.6000000
 20
     -3.9865000
 11
     66.7000000
 21
     -3.9772400
0
LINE
  8
0
 10
     66.7000000
 20
     -3.9772400
 11
     66.8000000
 21
     -3.9679800
0
LINE
  8
0
 10
     66.8000000
 20
     -3.9679800
 11
     66.9000000
 21
     -3.9587000
0
LINE
  8
0
 10
     66.9000000
 20
     -3.9587000
 11
     67.0000000
 21
     -3.9494100
0
LINE
  8
0
 10
     67.0000000
 20
     -3.9494100
 11
     67.1000000
 21
     -3.9401000
0
LINE
  8
0
 10
     67.1000000
 20
     -3.9401000
 11
     67.2000000
 21
     -3.9307700
0
LINE
  8
0
 10
     67.2000000
 20
     -3.9307700
 11
     67.3000000
 21
     -3.9214400
0
LINE
  8
0
 10
     67.3000000
 20
     -3.9214400
 11
     67.4000000
 21
     -3.9120800
0
LINE
  8
0
 10
     67.4000000
 20
     -3.9120800
 11
     67.5000000
 21
     -3.9027200
0
LINE
  8
0
 10
     67.5000000
 20
     -3.9027200
 11
     67.6000000
 21
     -3.8933300
0
LINE
  8
0
 10
     67.6000000
 20
     -3.8933300
 11
     67.7000000
 21
     -3.8839400
0
LINE
  8
0
 10
     67.7000000
 20
     -3.8839400
 11
     67.8000000
 21
     -3.8745300
0
LINE
  8
0
 10
     67.8000000
 20
     -3.8745300
 11
     67.9000000
 21
     -3.8651000
0
LINE
  8
0
 10
     67.9000000
 20
     -3.8651000
 11
     68.0000000
 21
     -3.8556700
0
LINE
  8
0
 10
     68.0000000
 20
     -3.8556700
 11
     68.1000000
 21
     -3.8462100
0
LINE
  8
0
 10
     68.1000000
 20
     -3.8462100
 11
     68.2000000
 21
     -3.8367500
0
LINE
  8
0
 10
     68.2000000
 20
     -3.8367500
 11
     68.3000000
 21
     -3.8272600
0
LINE
  8
0
 10
     68.3000000
 20
     -3.8272600
 11
     68.4000000
 21
     -3.8177700
0
LINE
  8
0
 10
     68.4000000
 20
     -3.8177700
 11
     68.5000000
 21
     -3.8082600
0
LINE
  8
0
 10
     68.5000000
 20
     -3.8082600
 11
     68.6000000
 21
     -3.7987300
0
LINE
  8
0
 10
     68.6000000
 20
     -3.7987300
 11
     68.7000000
 21
     -3.7891900
0
LINE
  8
0
 10
     68.7000000
 20
     -3.7891900
 11
     68.8000000
 21
     -3.7796400
0
LINE
  8
0
 10
     68.8000000
 20
     -3.7796400
 11
     68.9000000
 21
     -3.7700700
0
LINE
  8
0
 10
     68.9000000
 20
     -3.7700700
 11
     69.0000000
 21
     -3.7604900
0
LINE
  8
0
 10
     69.0000000
 20
     -3.7604900
 11
     69.1000000
 21
     -3.7509000
0
LINE
  8
0
 10
     69.1000000
 20
     -3.7509000
 11
     69.2000000
 21
     -3.7412900
0
LINE
  8
0
 10
     69.2000000
 20
     -3.7412900
 11
     69.3000000
 21
     -3.7316600
0
LINE
  8
0
 10
     69.3000000
 20
     -3.7316600
 11
     69.4000000
 21
     -3.7220300
0
LINE
  8
0
 10
     69.4000000
 20
     -3.7220300
 11
     69.5000000
 21
     -3.7123800
0
LINE
  8
0
 10
     69.5000000
 20
     -3.7123800
 11
     69.6000000
 21
     -3.7027100
0
LINE
  8
0
 10
     69.6000000
 20
     -3.7027100
 11
     69.7000000
 21
     -3.6930300
0
LINE
  8
0
 10
     69.7000000
 20
     -3.6930300
 11
     69.8000000
 21
     -3.6833400
0
LINE
  8
0
 10
     69.8000000
 20
     -3.6833400
 11
     69.9000000
 21
     -3.6736300
0
LINE
  8
0
 10
     69.9000000
 20
     -3.6736300
 11
     70.0000000
 21
     -3.6639100
0
LINE
  8
0
 10
     70.0000000
 20
     -3.6639100
 11
     70.1000000
 21
     -3.6541700
0
LINE
  8
0
 10
     70.1000000
 20
     -3.6541700
 11
     70.2000000
 21
     -3.6444200
0
LINE
  8
0
 10
     70.2000000
 20
     -3.6444200
 11
     70.3000000
 21
     -3.6346600
0
LINE
  8
0
 10
     70.3000000
 20
     -3.6346600
 11
     70.4000000
 21
     -3.6248800
0
LINE
  8
0
 10
     70.4000000
 20
     -3.6248800
 11
     70.5000000
 21
     -3.6150900
0
LINE
  8
0
 10
     70.5000000
 20
     -3.6150900
 11
     70.6000000
 21
     -3.6052800
0
LINE
  8
0
 10
     70.6000000
 20
     -3.6052800
 11
     70.7000000
 21
     -3.5954600
0
LINE
  8
0
 10
     70.7000000
 20
     -3.5954600
 11
     70.8000000
 21
     -3.5856300
0
LINE
  8
0
 10
     70.8000000
 20
     -3.5856300
 11
     70.9000000
 21
     -3.5757900
0
LINE
  8
0
 10
     70.9000000
 20
     -3.5757900
 11
     71.0000000
 21
     -3.5659200
0
LINE
  8
0
 10
     71.0000000
 20
     -3.5659200
 11
     71.1000100
 21
     -3.5560500
0
LINE
  8
0
 10
     71.1000100
 20
     -3.5560500
 11
     71.2000000
 21
     -3.5461600
0
LINE
  8
0
 10
     71.2000000
 20
     -3.5461600
 11
     71.3000000
 21
     -3.5362600
0
LINE
  8
0
 10
     71.3000000
 20
     -3.5362600
 11
     71.4000000
 21
     -3.5263400
0
LINE
  8
0
 10
     71.4000000
 20
     -3.5263400
 11
     71.5000000
 21
     -3.5164100
0
LINE
  8
0
 10
     71.5000000
 20
     -3.5164100
 11
     71.6000000
 21
     -3.5064700
0
LINE
  8
0
 10
     71.6000000
 20
     -3.5064700
 11
     71.7000000
 21
     -3.4965100
0
LINE
  8
0
 10
     71.7000000
 20
     -3.4965100
 11
     71.8000000
 21
     -3.4865400
0
LINE
  8
0
 10
     71.8000000
 20
     -3.4865400
 11
     71.9000000
 21
     -3.4765600
0
LINE
  8
0
 10
     71.9000000
 20
     -3.4765600
 11
     72.0000000
 21
     -3.4665600
0
LINE
  8
0
 10
     72.0000000
 20
     -3.4665600
 11
     72.1000000
 21
     -3.4565500
0
LINE
  8
0
 10
     72.1000000
 20
     -3.4565500
 11
     72.2000000
 21
     -3.4465200
0
LINE
  8
0
 10
     72.2000000
 20
     -3.4465200
 11
     72.3000000
 21
     -3.4364800
0
LINE
  8
0
 10
     72.3000000
 20
     -3.4364800
 11
     72.3999900
 21
     -3.4264300
0
LINE
  8
0
 10
     72.3999900
 20
     -3.4264300
 11
     72.5000000
 21
     -3.4163700
0
LINE
  8
0
 10
     72.5000000
 20
     -3.4163700
 11
     72.6000000
 21
     -3.4062900
0
LINE
  8
0
 10
     72.6000000
 20
     -3.4062900
 11
     72.7000000
 21
     -3.3961900
0
LINE
  8
0
 10
     72.7000000
 20
     -3.3961900
 11
     72.8000000
 21
     -3.3860800
0
LINE
  8
0
 10
     72.8000000
 20
     -3.3860800
 11
     72.8999900
 21
     -3.3759600
0
LINE
  8
0
 10
     72.8999900
 20
     -3.3759600
 11
     73.0000000
 21
     -3.3658300
0
LINE
  8
0
 10
     73.0000000
 20
     -3.3658300
 11
     73.1000000
 21
     -3.3556800
0
LINE
  8
0
 10
     73.1000000
 20
     -3.3556800
 11
     73.2000000
 21
     -3.3455200
0
LINE
  8
0
 10
     73.2000000
 20
     -3.3455200
 11
     73.3000000
 21
     -3.3353500
0
LINE
  8
0
 10
     73.3000000
 20
     -3.3353500
 11
     73.4000000
 21
     -3.3251600
0
LINE
  8
0
 10
     73.4000000
 20
     -3.3251600
 11
     73.5000000
 21
     -3.3149500
0
LINE
  8
0
 10
     73.5000000
 20
     -3.3149500
 11
     73.6000000
 21
     -3.3047400
0
LINE
  8
0
 10
     73.6000000
 20
     -3.3047400
 11
     73.7000000
 21
     -3.2945100
0
LINE
  8
0
 10
     73.7000000
 20
     -3.2945100
 11
     73.8000000
 21
     -3.2842700
0
LINE
  8
0
 10
     73.8000000
 20
     -3.2842700
 11
     73.9000000
 21
     -3.2740100
0
LINE
  8
0
 10
     73.9000000
 20
     -3.2740100
 11
     74.0000000
 21
     -3.2637400
0
LINE
  8
0
 10
     74.0000000
 20
     -3.2637400
 11
     74.1000000
 21
     -3.2534600
0
LINE
  8
0
 10
     74.1000000
 20
     -3.2534600
 11
     74.2000000
 21
     -3.2431600
0
LINE
  8
0
 10
     74.2000000
 20
     -3.2431600
 11
     74.3000000
 21
     -3.2328500
0
LINE
  8
0
 10
     74.3000000
 20
     -3.2328500
 11
     74.4000000
 21
     -3.2225300
0
LINE
  8
0
 10
     74.4000000
 20
     -3.2225300
 11
     74.5000000
 21
     -3.2121900
0
LINE
  8
0
 10
     74.5000000
 20
     -3.2121900
 11
     74.6000000
 21
     -3.2018400
0
LINE
  8
0
 10
     74.6000000
 20
     -3.2018400
 11
     74.7000000
 21
     -3.1914800
0
LINE
  8
0
 10
     74.7000000
 20
     -3.1914800
 11
     74.8000000
 21
     -3.1811000
0
LINE
  8
0
 10
     74.8000000
 20
     -3.1811000
 11
     74.9000000
 21
     -3.1707100
0
LINE
  8
0
 10
     74.9000000
 20
     -3.1707100
 11
     75.0000000
 21
     -3.1603100
0
LINE
  8
0
 10
     75.0000000
 20
     -3.1603100
 11
     75.1000000
 21
     -3.1498900
0
LINE
  8
0
 10
     75.1000000
 20
     -3.1498900
 11
     75.2000000
 21
     -3.1394600
0
LINE
  8
0
 10
     75.2000000
 20
     -3.1394600
 11
     75.3000000
 21
     -3.1290100
0
LINE
  8
0
 10
     75.3000000
 20
     -3.1290100
 11
     75.4000000
 21
     -3.1185600
0
LINE
  8
0
 10
     75.4000000
 20
     -3.1185600
 11
     75.5000000
 21
     -3.1080900
0
LINE
  8
0
 10
     75.5000000
 20
     -3.1080900
 11
     75.6000000
 21
     -3.0976000
0
LINE
  8
0
 10
     75.6000000
 20
     -3.0976000
 11
     75.7000000
 21
     -3.0871000
0
LINE
  8
0
 10
     75.7000000
 20
     -3.0871000
 11
     75.8000000
 21
     -3.0765900
0
LINE
  8
0
 10
     75.8000000
 20
     -3.0765900
 11
     75.9000000
 21
     -3.0660700
0
LINE
  8
0
 10
     75.9000000
 20
     -3.0660700
 11
     76.0000000
 21
     -3.0555300
0
LINE
  8
0
 10
     76.0000000
 20
     -3.0555300
 11
     76.1000000
 21
     -3.0449800
0
LINE
  8
0
 10
     76.1000000
 20
     -3.0449800
 11
     76.2000000
 21
     -3.0344200
0
LINE
  8
0
 10
     76.2000000
 20
     -3.0344200
 11
     76.3000000
 21
     -3.0238400
0
LINE
  8
0
 10
     76.3000000
 20
     -3.0238400
 11
     76.4000000
 21
     -3.0132500
0
LINE
  8
0
 10
     76.4000000
 20
     -3.0132500
 11
     76.5000000
 21
     -3.0026400
0
LINE
  8
0
 10
     76.5000000
 20
     -3.0026400
 11
     76.6000000
 21
     -2.9920300
0
LINE
  8
0
 10
     76.6000000
 20
     -2.9920300
 11
     76.7000000
 21
     -2.9814000
0
LINE
  8
0
 10
     76.7000000
 20
     -2.9814000
 11
     76.8000000
 21
     -2.9707500
0
LINE
  8
0
 10
     76.8000000
 20
     -2.9707500
 11
     76.9000000
 21
     -2.9600900
0
LINE
  8
0
 10
     76.9000000
 20
     -2.9600900
 11
     77.0000000
 21
     -2.9494200
0
LINE
  8
0
 10
     77.0000000
 20
     -2.9494200
 11
     77.1000100
 21
     -2.9387400
0
LINE
  8
0
 10
     77.1000100
 20
     -2.9387400
 11
     77.2000000
 21
     -2.9280400
0
LINE
  8
0
 10
     77.2000000
 20
     -2.9280400
 11
     77.3000000
 21
     -2.9173300
0
LINE
  8
0
 10
     77.3000000
 20
     -2.9173300
 11
     77.4000000
 21
     -2.9066100
0
LINE
  8
0
 10
     77.4000000
 20
     -2.9066100
 11
     77.5000000
 21
     -2.8958700
0
LINE
  8
0
 10
     77.5000000
 20
     -2.8958700
 11
     77.6000100
 21
     -2.8851200
0
LINE
  8
0
 10
     77.6000100
 20
     -2.8851200
 11
     77.7000000
 21
     -2.8743600
0
LINE
  8
0
 10
     77.7000000
 20
     -2.8743600
 11
     77.8000000
 21
     -2.8635800
0
LINE
  8
0
 10
     77.8000000
 20
     -2.8635800
 11
     77.9000000
 21
     -2.8527900
0
LINE
  8
0
 10
     77.9000000
 20
     -2.8527900
 11
     78.0000000
 21
     -2.8419800
0
LINE
  8
0
 10
     78.0000000
 20
     -2.8419800
 11
     78.1000000
 21
     -2.8311700
0
LINE
  8
0
 10
     78.1000000
 20
     -2.8311700
 11
     78.2000000
 21
     -2.8203400
0
LINE
  8
0
 10
     78.2000000
 20
     -2.8203400
 11
     78.3000000
 21
     -2.8094900
0
LINE
  8
0
 10
     78.3000000
 20
     -2.8094900
 11
     78.4000000
 21
     -2.7986400
0
LINE
  8
0
 10
     78.4000000
 20
     -2.7986400
 11
     78.5000000
 21
     -2.7877700
0
LINE
  8
0
 10
     78.5000000
 20
     -2.7877700
 11
     78.6000000
 21
     -2.7768800
0
LINE
  8
0
 10
     78.6000000
 20
     -2.7768800
 11
     78.7000000
 21
     -2.7659900
0
LINE
  8
0
 10
     78.7000000
 20
     -2.7659900
 11
     78.8000000
 21
     -2.7550800
0
LINE
  8
0
 10
     78.8000000
 20
     -2.7550800
 11
     78.8999900
 21
     -2.7441500
0
LINE
  8
0
 10
     78.8999900
 20
     -2.7441500
 11
     79.0000000
 21
     -2.7332200
0
LINE
  8
0
 10
     79.0000000
 20
     -2.7332200
 11
     79.1000000
 21
     -2.7222700
0
LINE
  8
0
 10
     79.1000000
 20
     -2.7222700
 11
     79.2000000
 21
     -2.7113000
0
LINE
  8
0
 10
     79.2000000
 20
     -2.7113000
 11
     79.3000000
 21
     -2.7003300
0
LINE
  8
0
 10
     79.3000000
 20
     -2.7003300
 11
     79.4000000
 21
     -2.6893400
0
LINE
  8
0
 10
     79.4000000
 20
     -2.6893400
 11
     79.5000000
 21
     -2.6783300
0
LINE
  8
0
 10
     79.5000000
 20
     -2.6783300
 11
     79.6000000
 21
     -2.6673200
0
LINE
  8
0
 10
     79.6000000
 20
     -2.6673200
 11
     79.7000000
 21
     -2.6562900
0
LINE
  8
0
 10
     79.7000000
 20
     -2.6562900
 11
     79.8000000
 21
     -2.6452400
0
LINE
  8
0
 10
     79.8000000
 20
     -2.6452400
 11
     79.9000000
 21
     -2.6341900
0
LINE
  8
0
 10
     79.9000000
 20
     -2.6341900
 11
     80.0000000
 21
     -2.6231200
0
LINE
  8
0
 10
     80.0000000
 20
     -2.6231200
 11
     80.1000000
 21
     -2.6120400
0
LINE
  8
0
 10
     80.1000000
 20
     -2.6120400
 11
     80.2000000
 21
     -2.6009400
0
LINE
  8
0
 10
     80.2000000
 20
     -2.6009400
 11
     80.3000000
 21
     -2.5898300
0
LINE
  8
0
 10
     80.3000000
 20
     -2.5898300
 11
     80.4000000
 21
     -2.5787100
0
LINE
  8
0
 10
     80.4000000
 20
     -2.5787100
 11
     80.5000000
 21
     -2.5675700
0
LINE
  8
0
 10
     80.5000000
 20
     -2.5675700
 11
     80.6000000
 21
     -2.5564200
0
LINE
  8
0
 10
     80.6000000
 20
     -2.5564200
 11
     80.7000000
 21
     -2.5452600
0
LINE
  8
0
 10
     80.7000000
 20
     -2.5452600
 11
     80.8000000
 21
     -2.5340800
0
LINE
  8
0
 10
     80.8000000
 20
     -2.5340800
 11
     80.9000000
 21
     -2.5228900
0
LINE
  8
0
 10
     80.9000000
 20
     -2.5228900
 11
     81.0000000
 21
     -2.5116900
0
LINE
  8
0
 10
     81.0000000
 20
     -2.5116900
 11
     81.1000000
 21
     -2.5004700
0
LINE
  8
0
 10
     81.1000000
 20
     -2.5004700
 11
     81.2000000
 21
     -2.4892400
0
LINE
  8
0
 10
     81.2000000
 20
     -2.4892400
 11
     81.3000000
 21
     -2.4780000
0
LINE
  8
0
 10
     81.3000000
 20
     -2.4780000
 11
     81.4000000
 21
     -2.4667500
0
LINE
  8
0
 10
     81.4000000
 20
     -2.4667500
 11
     81.5000000
 21
     -2.4554800
0
LINE
  8
0
 10
     81.5000000
 20
     -2.4554800
 11
     81.6000000
 21
     -2.4441900
0
LINE
  8
0
 10
     81.6000000
 20
     -2.4441900
 11
     81.7000000
 21
     -2.4329000
0
LINE
  8
0
 10
     81.7000000
 20
     -2.4329000
 11
     81.8000000
 21
     -2.4215900
0
LINE
  8
0
 10
     81.8000000
 20
     -2.4215900
 11
     81.9000000
 21
     -2.4102600
0
LINE
  8
0
 10
     81.9000000
 20
     -2.4102600
 11
     82.0000000
 21
     -2.3989300
0
LINE
  8
0
 10
     82.0000000
 20
     -2.3989300
 11
     82.1000000
 21
     -2.3875800
0
LINE
  8
0
 10
     82.1000000
 20
     -2.3875800
 11
     82.2000000
 21
     -2.3762100
0
LINE
  8
0
 10
     82.2000000
 20
     -2.3762100
 11
     82.3000000
 21
     -2.3648400
0
LINE
  8
0
 10
     82.3000000
 20
     -2.3648400
 11
     82.4000000
 21
     -2.3534500
0
LINE
  8
0
 10
     82.4000000
 20
     -2.3534500
 11
     82.5000000
 21
     -2.3420400
0
LINE
  8
0
 10
     82.5000000
 20
     -2.3420400
 11
     82.6000000
 21
     -2.3306300
0
LINE
  8
0
 10
     82.6000000
 20
     -2.3306300
 11
     82.7000000
 21
     -2.3192000
0
LINE
  8
0
 10
     82.7000000
 20
     -2.3192000
 11
     82.8000000
 21
     -2.3077500
0
LINE
  8
0
 10
     82.8000000
 20
     -2.3077500
 11
     82.9000000
 21
     -2.2962900
0
LINE
  8
0
 10
     82.9000000
 20
     -2.2962900
 11
     83.0000000
 21
     -2.2848200
0
LINE
  8
0
 10
     83.0000000
 20
     -2.2848200
 11
     83.1000000
 21
     -2.2733400
0
LINE
  8
0
 10
     83.1000000
 20
     -2.2733400
 11
     83.2000000
 21
     -2.2618400
0
LINE
  8
0
 10
     83.2000000
 20
     -2.2618400
 11
     83.3000000
 21
     -2.2503300
0
LINE
  8
0
 10
     83.3000000
 20
     -2.2503300
 11
     83.4000000
 21
     -2.2388100
0
LINE
  8
0
 10
     83.4000000
 20
     -2.2388100
 11
     83.5000000
 21
     -2.2272700
0
LINE
  8
0
 10
     83.5000000
 20
     -2.2272700
 11
     83.6000100
 21
     -2.2157100
0
LINE
  8
0
 10
     83.6000100
 20
     -2.2157100
 11
     83.7000000
 21
     -2.2041500
0
LINE
  8
0
 10
     83.7000000
 20
     -2.2041500
 11
     83.8000000
 21
     -2.1925700
0
LINE
  8
0
 10
     83.8000000
 20
     -2.1925700
 11
     83.9000000
 21
     -2.1809800
0
LINE
  8
0
 10
     83.9000000
 20
     -2.1809800
 11
     84.0000000
 21
     -2.1693700
0
LINE
  8
0
 10
     84.0000000
 20
     -2.1693700
 11
     84.1000000
 21
     -2.1577500
0
LINE
  8
0
 10
     84.1000000
 20
     -2.1577500
 11
     84.2000000
 21
     -2.1461200
0
LINE
  8
0
 10
     84.2000000
 20
     -2.1461200
 11
     84.3000000
 21
     -2.1344700
0
LINE
  8
0
 10
     84.3000000
 20
     -2.1344700
 11
     84.4000000
 21
     -2.1228100
0
LINE
  8
0
 10
     84.4000000
 20
     -2.1228100
 11
     84.5000000
 21
     -2.1111400
0
LINE
  8
0
 10
     84.5000000
 20
     -2.1111400
 11
     84.6000000
 21
     -2.0994500
0
LINE
  8
0
 10
     84.6000000
 20
     -2.0994500
 11
     84.7000000
 21
     -2.0877500
0
LINE
  8
0
 10
     84.7000000
 20
     -2.0877500
 11
     84.8000000
 21
     -2.0760300
0
LINE
  8
0
 10
     84.8000000
 20
     -2.0760300
 11
     84.8999900
 21
     -2.0643100
0
LINE
  8
0
 10
     84.8999900
 20
     -2.0643100
 11
     85.0000000
 21
     -2.0525600
0
LINE
  8
0
 10
     85.0000000
 20
     -2.0525600
 11
     85.1000000
 21
     -2.0408100
0
LINE
  8
0
 10
     85.1000000
 20
     -2.0408100
 11
     85.2000000
 21
     -2.0290400
0
LINE
  8
0
 10
     85.2000000
 20
     -2.0290400
 11
     85.3000000
 21
     -2.0172500
0
LINE
  8
0
 10
     85.3000000
 20
     -2.0172500
 11
     85.3999900
 21
     -2.0054600
0
LINE
  8
0
 10
     85.3999900
 20
     -2.0054600
 11
     85.5000000
 21
     -1.9936500
0
LINE
  8
0
 10
     85.5000000
 20
     -1.9936500
 11
     85.6000000
 21
     -1.9818200
0
LINE
  8
0
 10
     85.6000000
 20
     -1.9818200
 11
     85.7000000
 21
     -1.9699800
0
LINE
  8
0
 10
     85.7000000
 20
     -1.9699800
 11
     85.8000000
 21
     -1.9581300
0
LINE
  8
0
 10
     85.8000000
 20
     -1.9581300
 11
     85.9000000
 21
     -1.9462700
0
LINE
  8
0
 10
     85.9000000
 20
     -1.9462700
 11
     86.0000000
 21
     -1.9343900
0
LINE
  8
0
 10
     86.0000000
 20
     -1.9343900
 11
     86.1000000
 21
     -1.9224900
0
LINE
  8
0
 10
     86.1000000
 20
     -1.9224900
 11
     86.2000000
 21
     -1.9105900
0
LINE
  8
0
 10
     86.2000000
 20
     -1.9105900
 11
     86.3000000
 21
     -1.8986700
0
LINE
  8
0
 10
     86.3000000
 20
     -1.8986700
 11
     86.4000000
 21
     -1.8867300
0
LINE
  8
0
 10
     86.4000000
 20
     -1.8867300
 11
     86.5000000
 21
     -1.8747800
0
LINE
  8
0
 10
     86.5000000
 20
     -1.8747800
 11
     86.6000000
 21
     -1.8628200
0
LINE
  8
0
 10
     86.6000000
 20
     -1.8628200
 11
     86.7000000
 21
     -1.8508400
0
LINE
  8
0
 10
     86.7000000
 20
     -1.8508400
 11
     86.8000000
 21
     -1.8388500
0
LINE
  8
0
 10
     86.8000000
 20
     -1.8388500
 11
     86.9000000
 21
     -1.8268500
0
LINE
  8
0
 10
     86.9000000
 20
     -1.8268500
 11
     87.0000000
 21
     -1.8148300
0
LINE
  8
0
 10
     87.0000000
 20
     -1.8148300
 11
     87.1000000
 21
     -1.8028000
0
LINE
  8
0
 10
     87.1000000
 20
     -1.8028000
 11
     87.2000000
 21
     -1.7907500
0
LINE
  8
0
 10
     87.2000000
 20
     -1.7907500
 11
     87.3000000
 21
     -1.7786900
0
LINE
  8
0
 10
     87.3000000
 20
     -1.7786900
 11
     87.4000000
 21
     -1.7666200
0
LINE
  8
0
 10
     87.4000000
 20
     -1.7666200
 11
     87.5000000
 21
     -1.7545300
0
LINE
  8
0
 10
     87.5000000
 20
     -1.7545300
 11
     87.6000000
 21
     -1.7424300
0
LINE
  8
0
 10
     87.6000000
 20
     -1.7424300
 11
     87.7000000
 21
     -1.7303100
0
LINE
  8
0
 10
     87.7000000
 20
     -1.7303100
 11
     87.8000000
 21
     -1.7181800
0
LINE
  8
0
 10
     87.8000000
 20
     -1.7181800
 11
     87.9000000
 21
     -1.7060300
0
LINE
  8
0
 10
     87.9000000
 20
     -1.7060300
 11
     88.0000000
 21
     -1.6938800
0
LINE
  8
0
 10
     88.0000000
 20
     -1.6938800
 11
     88.1000000
 21
     -1.6817000
0
LINE
  8
0
 10
     88.1000000
 20
     -1.6817000
 11
     88.2000000
 21
     -1.6695200
0
LINE
  8
0
 10
     88.2000000
 20
     -1.6695200
 11
     88.3000000
 21
     -1.6573200
0
LINE
  8
0
 10
     88.3000000
 20
     -1.6573200
 11
     88.4000000
 21
     -1.6451000
0
LINE
  8
0
 10
     88.4000000
 20
     -1.6451000
 11
     88.5000000
 21
     -1.6328700
0
LINE
  8
0
 10
     88.5000000
 20
     -1.6328700
 11
     88.6000000
 21
     -1.6206300
0
LINE
  8
0
 10
     88.6000000
 20
     -1.6206300
 11
     88.7000000
 21
     -1.6083700
0
LINE
  8
0
 10
     88.7000000
 20
     -1.6083700
 11
     88.8000000
 21
     -1.5961000
0
LINE
  8
0
 10
     88.8000000
 20
     -1.5961000
 11
     88.9000000
 21
     -1.5838100
0
LINE
  8
0
 10
     88.9000000
 20
     -1.5838100
 11
     89.0000000
 21
     -1.5715100
0
LINE
  8
0
 10
     89.0000000
 20
     -1.5715100
 11
     89.1000000
 21
     -1.5592000
0
LINE
  8
0
 10
     89.1000000
 20
     -1.5592000
 11
     89.2000000
 21
     -1.5468700
0
LINE
  8
0
 10
     89.2000000
 20
     -1.5468700
 11
     89.3000000
 21
     -1.5345200
0
LINE
  8
0
 10
     89.3000000
 20
     -1.5345200
 11
     89.4000000
 21
     -1.5221700
0
LINE
  8
0
 10
     89.4000000
 20
     -1.5221700
 11
     89.5000000
 21
     -1.5097900
0
LINE
  8
0
 10
     89.5000000
 20
     -1.5097900
 11
     89.6000100
 21
     -1.4974100
0
LINE
  8
0
 10
     89.6000100
 20
     -1.4974100
 11
     89.7000000
 21
     -1.4850100
0
LINE
  8
0
 10
     89.7000000
 20
     -1.4850100
 11
     89.8000000
 21
     -1.4725900
0
LINE
  8
0
 10
     89.8000000
 20
     -1.4725900
 11
     89.9000000
 21
     -1.4601600
0
LINE
  8
0
 10
     89.9000000
 20
     -1.4601600
 11
     90.0000000
 21
     -1.4477200
0
LINE
  8
0
 10
     90.0000000
 20
     -1.4477200
 11
     90.1000100
 21
     -1.4352600
0
LINE
  8
0
 10
     90.1000100
 20
     -1.4352600
 11
     90.2000000
 21
     -1.4227900
0
LINE
  8
0
 10
     90.2000000
 20
     -1.4227900
 11
     90.3000000
 21
     -1.4103000
0
LINE
  8
0
 10
     90.3000000
 20
     -1.4103000
 11
     90.4000000
 21
     -1.3978000
0
LINE
  8
0
 10
     90.4000000
 20
     -1.3978000
 11
     90.5000000
 21
     -1.3852800
0
LINE
  8
0
 10
     90.5000000
 20
     -1.3852800
 11
     90.6000000
 21
     -1.3727500
0
LINE
  8
0
 10
     90.6000000
 20
     -1.3727500
 11
     90.7000000
 21
     -1.3602000
0
LINE
  8
0
 10
     90.7000000
 20
     -1.3602000
 11
     90.8000000
 21
     -1.3476400
0
LINE
  8
0
 10
     90.8000000
 20
     -1.3476400
 11
     90.9000000
 21
     -1.3350700
0
LINE
  8
0
 10
     90.9000000
 20
     -1.3350700
 11
     91.0000000
 21
     -1.3224700
0
LINE
  8
0
 10
     91.0000000
 20
     -1.3224700
 11
     91.1000000
 21
     -1.3098700
0
LINE
  8
0
 10
     91.1000000
 20
     -1.3098700
 11
     91.2000000
 21
     -1.2972500
0
LINE
  8
0
 10
     91.2000000
 20
     -1.2972500
 11
     91.3000000
 21
     -1.2846200
0
LINE
  8
0
 10
     91.3000000
 20
     -1.2846200
 11
     91.3999900
 21
     -1.2719700
0
LINE
  8
0
 10
     91.3999900
 20
     -1.2719700
 11
     91.5000000
 21
     -1.2593000
0
LINE
  8
0
 10
     91.5000000
 20
     -1.2593000
 11
     91.6000000
 21
     -1.2466200
0
LINE
  8
0
 10
     91.6000000
 20
     -1.2466200
 11
     91.7000000
 21
     -1.2339300
0
LINE
  8
0
 10
     91.7000000
 20
     -1.2339300
 11
     91.8000000
 21
     -1.2212200
0
LINE
  8
0
 10
     91.8000000
 20
     -1.2212200
 11
     91.9000000
 21
     -1.2085000
0
LINE
  8
0
 10
     91.9000000
 20
     -1.2085000
 11
     92.0000000
 21
     -1.1957600
0
LINE
  8
0
 10
     92.0000000
 20
     -1.1957600
 11
     92.1000000
 21
     -1.1830100
0
LINE
  8
0
 10
     92.1000000
 20
     -1.1830100
 11
     92.2000000
 21
     -1.1702400
0
LINE
  8
0
 10
     92.2000000
 20
     -1.1702400
 11
     92.3000000
 21
     -1.1574600
0
LINE
  8
0
 10
     92.3000000
 20
     -1.1574600
 11
     92.4000000
 21
     -1.1446600
0
LINE
  8
0
 10
     92.4000000
 20
     -1.1446600
 11
     92.5000000
 21
     -1.1318500
0
LINE
  8
0
 10
     92.5000000
 20
     -1.1318500
 11
     92.6000000
 21
     -1.1190200
0
LINE
  8
0
 10
     92.6000000
 20
     -1.1190200
 11
     92.7000000
 21
     -1.1061800
0
LINE
  8
0
 10
     92.7000000
 20
     -1.1061800
 11
     92.8000000
 21
     -1.0933200
0
LINE
  8
0
 10
     92.8000000
 20
     -1.0933200
 11
     92.9000000
 21
     -1.0804400
0
LINE
  8
0
 10
     92.9000000
 20
     -1.0804400
 11
     93.0000000
 21
     -1.0675500
0
LINE
  8
0
 10
     93.0000000
 20
     -1.0675500
 11
     93.1000000
 21
     -1.0546500
0
LINE
  8
0
 10
     93.1000000
 20
     -1.0546500
 11
     93.2000000
 21
     -1.0417300
0
LINE
  8
0
 10
     93.2000000
 20
     -1.0417300
 11
     93.3000000
 21
     -1.0288000
0
LINE
  8
0
 10
     93.3000000
 20
     -1.0288000
 11
     93.4000000
 21
     -1.0158500
0
LINE
  8
0
 10
     93.4000000
 20
     -1.0158500
 11
     93.5000000
 21
     -1.0028800
0
LINE
  8
0
 10
     93.5000000
 20
     -1.0028800
 11
     93.6000000
 21
      -.9899000
0
LINE
  8
0
 10
     93.6000000
 20
      -.9899000
 11
     93.7000000
 21
      -.9769100
0
LINE
  8
0
 10
     93.7000000
 20
      -.9769100
 11
     93.8000000
 21
      -.9639000
0
LINE
  8
0
 10
     93.8000000
 20
      -.9639000
 11
     93.9000000
 21
      -.9508700
0
LINE
  8
0
 10
     93.9000000
 20
      -.9508700
 11
     94.0000000
 21
      -.9378300
0
LINE
  8
0
 10
     94.0000000
 20
      -.9378300
 11
     94.1000000
 21
      -.9247700
0
LINE
  8
0
 10
     94.1000000
 20
      -.9247700
 11
     94.2000000
 21
      -.9117000
0
LINE
  8
0
 10
     94.2000000
 20
      -.9117000
 11
     94.3000000
 21
      -.8986100
0
LINE
  8
0
 10
     94.3000000
 20
      -.8986100
 11
     94.4000000
 21
      -.8855100
0
LINE
  8
0
 10
     94.4000000
 20
      -.8855100
 11
     94.5000000
 21
      -.8723900
0
LINE
  8
0
 10
     94.5000000
 20
      -.8723900
 11
     94.6000000
 21
      -.8592600
0
LINE
  8
0
 10
     94.6000000
 20
      -.8592600
 11
     94.7000000
 21
      -.8461000
0
LINE
  8
0
 10
     94.7000000
 20
      -.8461000
 11
     94.8000000
 21
      -.8329400
0
LINE
  8
0
 10
     94.8000000
 20
      -.8329400
 11
     94.9000000
 21
      -.8197600
0
LINE
  8
0
 10
     94.9000000
 20
      -.8197600
 11
     95.0000000
 21
      -.8065600
0
LINE
  8
0
 10
     95.0000000
 20
      -.8065600
 11
     95.1000000
 21
      -.7933500
0
LINE
  8
0
 10
     95.1000000
 20
      -.7933500
 11
     95.2000000
 21
      -.7801200
0
LINE
  8
0
 10
     95.2000000
 20
      -.7801200
 11
     95.3000000
 21
      -.7668700
0
LINE
  8
0
 10
     95.3000000
 20
      -.7668700
 11
     95.4000000
 21
      -.7536100
0
LINE
  8
0
 10
     95.4000000
 20
      -.7536100
 11
     95.5000000
 21
      -.7403400
0
LINE
  8
0
 10
     95.5000000
 20
      -.7403400
 11
     95.6000000
 21
      -.7270500
0
LINE
  8
0
 10
     95.6000000
 20
      -.7270500
 11
     95.7000000
 21
      -.7137400
0
LINE
  8
0
 10
     95.7000000
 20
      -.7137400
 11
     95.8000000
 21
      -.7004100
0
LINE
  8
0
 10
     95.8000000
 20
      -.7004100
 11
     95.9000000
 21
      -.6870700
0
LINE
  8
0
 10
     95.9000000
 20
      -.6870700
 11
     96.0000000
 21
      -.6737200
0
LINE
  8
0
 10
     96.0000000
 20
      -.6737200
 11
     96.1000100
 21
      -.6603500
0
LINE
  8
0
 10
     96.1000100
 20
      -.6603500
 11
     96.2000000
 21
      -.6469600
0
LINE
  8
0
 10
     96.2000000
 20
      -.6469600
 11
     96.3000000
 21
      -.6335500
0
LINE
  8
0
 10
     96.3000000
 20
      -.6335500
 11
     96.4000000
 21
      -.6201300
0
LINE
  8
0
 10
     96.4000000
 20
      -.6201300
 11
     96.5000000
 21
      -.6067000
0
LINE
  8
0
 10
     96.5000000
 20
      -.6067000
 11
     96.6000000
 21
      -.5932400
0
LINE
  8
0
 10
     96.6000000
 20
      -.5932400
 11
     96.7000000
 21
      -.5797800
0
LINE
  8
0
 10
     96.7000000
 20
      -.5797800
 11
     96.8000000
 21
      -.5662900
0
LINE
  8
0
 10
     96.8000000
 20
      -.5662900
 11
     96.9000000
 21
      -.5527900
0
LINE
  8
0
 10
     96.9000000
 20
      -.5527900
 11
     97.0000000
 21
      -.5392700
0
LINE
  8
0
 10
     97.0000000
 20
      -.5392700
 11
     97.1000000
 21
      -.5257400
0
LINE
  8
0
 10
     97.1000000
 20
      -.5257400
 11
     97.2000000
 21
      -.5121900
0
LINE
  8
0
 10
     97.2000000
 20
      -.5121900
 11
     97.3000000
 21
      -.4986200
0
LINE
  8
0
 10
     97.3000000
 20
      -.4986200
 11
     97.3999900
 21
      -.4850400
0
LINE
  8
0
 10
     97.3999900
 20
      -.4850400
 11
     97.5000000
 21
      -.4714400
0
LINE
  8
0
 10
     97.5000000
 20
      -.4714400
 11
     97.6000000
 21
      -.4578200
0
LINE
  8
0
 10
     97.6000000
 20
      -.4578200
 11
     97.7000000
 21
      -.4441900
0
LINE
  8
0
 10
     97.7000000
 20
      -.4441900
 11
     97.8000000
 21
      -.4305400
0
LINE
  8
0
 10
     97.8000000
 20
      -.4305400
 11
     97.8999900
 21
      -.4168800
0
LINE
  8
0
 10
     97.8999900
 20
      -.4168800
 11
     98.0000000
 21
      -.4031900
0
LINE
  8
0
 10
     98.0000000
 20
      -.4031900
 11
     98.1000000
 21
      -.3894900
0
LINE
  8
0
 10
     98.1000000
 20
      -.3894900
 11
     98.2000000
 21
      -.3757800
0
LINE
  8
0
 10
     98.2000000
 20
      -.3757800
 11
     98.3000000
 21
      -.3620500
0
LINE
  8
0
 10
     98.3000000
 20
      -.3620500
 11
     98.4000000
 21
      -.3483000
0
LINE
  8
0
 10
     98.4000000
 20
      -.3483000
 11
     98.5000000
 21
      -.3345300
0
LINE
  8
0
 10
     98.5000000
 20
      -.3345300
 11
     98.6000000
 21
      -.3207500
0
LINE
  8
0
 10
     98.6000000
 20
      -.3207500
 11
     98.7000000
 21
      -.3069500
0
LINE
  8
0
 10
     98.7000000
 20
      -.3069500
 11
     98.8000000
 21
      -.2931300
0
LINE
  8
0
 10
     98.8000000
 20
      -.2931300
 11
     98.9000000
 21
      -.2793000
0
LINE
  8
0
 10
     98.9000000
 20
      -.2793000
 11
     99.0000000
 21
      -.2654500
0
LINE
  8
0
 10
     99.0000000
 20
      -.2654500
 11
     99.1000000
 21
      -.2515800
0
LINE
  8
0
 10
     99.1000000
 20
      -.2515800
 11
     99.2000000
 21
      -.2377000
0
LINE
  8
0
 10
     99.2000000
 20
      -.2377000
 11
     99.3000000
 21
      -.2237900
0
LINE
  8
0
 10
     99.3000000
 20
      -.2237900
 11
     99.4000000
 21
      -.2098800
0
LINE
  8
0
 10
     99.4000000
 20
      -.2098800
 11
     99.5000000
 21
      -.1959400
0
LINE
  8
0
 10
     99.5000000
 20
      -.1959400
 11
     99.6000000
 21
      -.1819900
0
LINE
  8
0
 10
     99.6000000
 20
      -.1819900
 11
     99.7000000
 21
      -.1680200
0
LINE
  8
0
 10
     99.7000000
 20
      -.1680200
 11
     99.8000000
 21
      -.1540300
0
LINE
  8
0
 10
     99.8000000
 20
      -.1540300
 11
     99.9000000
 21
      -.1400200
0
LINE
  8
0
 10
     99.9000000
 20
      -.1400200
 11
    100.0000000
 21
      -.1260000
0
LINE
  8
0
 10
       .0000000
 20
       .0000000
 11
       .1000000
 21
       .0000000
0
LINE
  8
0
 10
       .1000000
 20
       .0000000
 11
       .2000000
 21
       .0000000
0
LINE
  8
0
 10
       .2000000
 20
       .0000000
 11
       .3000000
 21
       .0000000
0
LINE
  8
0
 10
       .3000000
 20
       .0000000
 11
       .4000000
 21
       .0000000
0
LINE
  8
0
 10
       .4000000
 20
       .0000000
 11
       .5000000
 21
       .0000000
0
LINE
  8
0
 10
       .5000000
 20
       .0000000
 11
       .6000000
 21
       .0000000
0
LINE
  8
0
 10
       .6000000
 20
       .0000000
 11
       .7000000
 21
       .0000000
0
LINE
  8
0
 10
       .7000000
 20
       .0000000
 11
       .8000000
 21
       .0000000
0
LINE
  8
0
 10
       .8000000
 20
       .0000000
 11
       .9000000
 21
       .0000000
0
LINE
  8
0
 10
       .9000000
 20
       .0000000
 11
      1.0000000
 21
       .0000000
0
LINE
  8
0
 10
      1.0000000
 20
       .0000000
 11
      1.1000000
 21
       .0000000
0
LINE
  8
0
 10
      1.1000000
 20
       .0000000
 11
      1.2000000
 21
       .0000000
0
LINE
  8
0
 10
      1.2000000
 20
       .0000000
 11
      1.3000000
 21
       .0000000
0
LINE
  8
0
 10
      1.3000000
 20
       .0000000
 11
      1.4000000
 21
       .0000000
0
LINE
  8
0
 10
      1.4000000
 20
       .0000000
 11
      1.5000000
 21
       .0000000
0
LINE
  8
0
 10
      1.5000000
 20
       .0000000
 11
      1.6000000
 21
       .0000000
0
LINE
  8
0
 10
      1.6000000
 20
       .0000000
 11
      1.7000000
 21
       .0000000
0
LINE
  8
0
 10
      1.7000000
 20
       .0000000
 11
      1.8000000
 21
       .0000000
0
LINE
  8
0
 10
      1.8000000
 20
       .0000000
 11
      1.9000000
 21
       .0000000
0
LINE
  8
0
 10
      1.9000000
 20
       .0000000
 11
      2.0000000
 21
       .0000000
0
LINE
  8
0
 10
      2.0000000
 20
       .0000000
 11
      2.1000000
 21
       .0000000
0
LINE
  8
0
 10
      2.1000000
 20
       .0000000
 11
      2.2000000
 21
       .0000000
0
LINE
  8
0
 10
      2.2000000
 20
       .0000000
 11
      2.3000000
 21
       .0000000
0
LINE
  8
0
 10
      2.3000000
 20
       .0000000
 11
      2.4000000
 21
       .0000000
0
LINE
  8
0
 10
      2.4000000
 20
       .0000000
 11
      2.5000000
 21
       .0000000
0
LINE
  8
0
 10
      2.5000000
 20
       .0000000
 11
      2.6000000
 21
       .0000000
0
LINE
  8
0
 10
      2.6000000
 20
       .0000000
 11
      2.7000000
 21
       .0000000
0
LINE
  8
0
 10
      2.7000000
 20
       .0000000
 11
      2.8000000
 21
       .0000000
0
LINE
  8
0
 10
      2.8000000
 20
       .0000000
 11
      2.9000000
 21
       .0000000
0
LINE
  8
0
 10
      2.9000000
 20
       .0000000
 11
      3.0000000
 21
       .0000000
0
LINE
  8
0
 10
      3.0000000
 20
       .0000000
 11
      3.1000000
 21
       .0000000
0
LINE
  8
0
 10
      3.1000000
 20
       .0000000
 11
      3.2000000
 21
       .0000000
0
LINE
  8
0
 10
      3.2000000
 20
       .0000000
 11
      3.3000000
 21
       .0000000
0
LINE
  8
0
 10
      3.3000000
 20
       .0000000
 11
      3.4000000
 21
       .0000000
0
LINE
  8
0
 10
      3.4000000
 20
       .0000000
 11
      3.5000000
 21
       .0000000
0
LINE
  8
0
 10
      3.5000000
 20
       .0000000
 11
      3.6000000
 21
       .0000000
0
LINE
  8
0
 10
      3.6000000
 20
       .0000000
 11
      3.7000000
 21
       .0000000
0
LINE
  8
0
 10
      3.7000000
 20
       .0000000
 11
      3.8000000
 21
       .0000000
0
LINE
  8
0
 10
      3.8000000
 20
       .0000000
 11
      3.9000000
 21
       .0000000
0
LINE
  8
0
 10
      3.9000000
 20
       .0000000
 11
      4.0000000
 21
       .0000000
0
LINE
  8
0
 10
      4.0000000
 20
       .0000000
 11
      4.1000000
 21
       .0000000
0
LINE
  8
0
 10
      4.1000000
 20
       .0000000
 11
      4.2000000
 21
       .0000000
0
LINE
  8
0
 10
      4.2000000
 20
       .0000000
 11
      4.3000000
 21
       .0000000
0
LINE
  8
0
 10
      4.3000000
 20
       .0000000
 11
      4.4000000
 21
       .0000000
0
LINE
  8
0
 10
      4.4000000
 20
       .0000000
 11
      4.5000000
 21
       .0000000
0
LINE
  8
0
 10
      4.5000000
 20
       .0000000
 11
      4.6000000
 21
       .0000000
0
LINE
  8
0
 10
      4.6000000
 20
       .0000000
 11
      4.7000000
 21
       .0000000
0
LINE
  8
0
 10
      4.7000000
 20
       .0000000
 11
      4.8000000
 21
       .0000000
0
LINE
  8
0
 10
      4.8000000
 20
       .0000000
 11
      4.9000000
 21
       .0000000
0
LINE
  8
0
 10
      4.9000000
 20
       .0000000
 11
      5.0000000
 21
       .0000000
0
LINE
  8
0
 10
      5.0000000
 20
       .0000000
 11
      5.1000000
 21
       .0000000
0
LINE
  8
0
 10
      5.1000000
 20
       .0000000
 11
      5.2000000
 21
       .0000000
0
LINE
  8
0
 10
      5.2000000
 20
       .0000000
 11
      5.3000000
 21
       .0000000
0
LINE
  8
0
 10
      5.3000000
 20
       .0000000
 11
      5.4000000
 21
       .0000000
0
LINE
  8
0
 10
      5.4000000
 20
       .0000000
 11
      5.5000000
 21
       .0000000
0
LINE
  8
0
 10
      5.5000000
 20
       .0000000
 11
      5.6000000
 21
       .0000000
0
LINE
  8
0
 10
      5.6000000
 20
       .0000000
 11
      5.7000000
 21
       .0000000
0
LINE
  8
0
 10
      5.7000000
 20
       .0000000
 11
      5.8000000
 21
       .0000000
0
LINE
  8
0
 10
      5.8000000
 20
       .0000000
 11
      5.9000000
 21
       .0000000
0
LINE
  8
0
 10
      5.9000000
 20
       .0000000
 11
      6.0000000
 21
       .0000000
0
LINE
  8
0
 10
      6.0000000
 20
       .0000000
 11
      6.1000000
 21
       .0000000
0
LINE
  8
0
 10
      6.1000000
 20
       .0000000
 11
      6.2000000
 21
       .0000000
0
LINE
  8
0
 10
      6.2000000
 20
       .0000000
 11
      6.3000000
 21
       .0000000
0
LINE
  8
0
 10
      6.3000000
 20
       .0000000
 11
      6.4000000
 21
       .0000000
0
LINE
  8
0
 10
      6.4000000
 20
       .0000000
 11
      6.5000000
 21
       .0000000
0
LINE
  8
0
 10
      6.5000000
 20
       .0000000
 11
      6.6000000
 21
       .0000000
0
LINE
  8
0
 10
      6.6000000
 20
       .0000000
 11
      6.7000000
 21
       .0000000
0
LINE
  8
0
 10
      6.7000000
 20
       .0000000
 11
      6.8000000
 21
       .0000000
0
LINE
  8
0
 10
      6.8000000
 20
       .0000000
 11
      6.9000000
 21
       .0000000
0
LINE
  8
0
 10
      6.9000000
 20
       .0000000
 11
      7.0000000
 21
       .0000000
0
LINE
  8
0
 10
      7.0000000
 20
       .0000000
 11
      7.1000000
 21
       .0000000
0
LINE
  8
0
 10
      7.1000000
 20
       .0000000
 11
      7.2000000
 21
       .0000000
0
LINE
  8
0
 10
      7.2000000
 20
       .0000000
 11
      7.3000000
 21
       .0000000
0
LINE
  8
0
 10
      7.3000000
 20
       .0000000
 11
      7.4000000
 21
       .0000000
0
LINE
  8
0
 10
      7.4000000
 20
       .0000000
 11
      7.5000000
 21
       .0000000
0
LINE
  8
0
 10
      7.5000000
 20
       .0000000
 11
      7.6000000
 21
       .0000000
0
LINE
  8
0
 10
      7.6000000
 20
       .0000000
 11
      7.7000000
 21
       .0000000
0
LINE
  8
0
 10
      7.7000000
 20
       .0000000
 11
      7.8000000
 21
       .0000000
0
LINE
  8
0
 10
      7.8000000
 20
       .0000000
 11
      7.9000000
 21
       .0000000
0
LINE
  8
0
 10
      7.9000000
 20
       .0000000
 11
      8.0000000
 21
       .0000000
0
LINE
  8
0
 10
      8.0000000
 20
       .0000000
 11
      8.1000000
 21
       .0000000
0
LINE
  8
0
 10
      8.1000000
 20
       .0000000
 11
      8.2000000
 21
       .0000000
0
LINE
  8
0
 10
      8.2000000
 20
       .0000000
 11
      8.3000000
 21
       .0000000
0
LINE
  8
0
 10
      8.3000000
 20
       .0000000
 11
      8.4000000
 21
       .0000000
0
LINE
  8
0
 10
      8.4000000
 20
       .0000000
 11
      8.5000000
 21
       .0000000
0
LINE
  8
0
 10
      8.5000000
 20
       .0000000
 11
      8.6000000
 21
       .0000000
0
LINE
  8
0
 10
      8.6000000
 20
       .0000000
 11
      8.7000000
 21
       .0000000
0
LINE
  8
0
 10
      8.7000000
 20
       .0000000
 11
      8.8000000
 21
       .0000000
0
LINE
  8
0
 10
      8.8000000
 20
       .0000000
 11
      8.9000000
 21
       .0000000
0
LINE
  8
0
 10
      8.9000000
 20
       .0000000
 11
      9.0000000
 21
       .0000000
0
LINE
  8
0
 10
      9.0000000
 20
       .0000000
 11
      9.1000000
 21
       .0000000
0
LINE
  8
0
 10
      9.1000000
 20
       .0000000
 11
      9.2000000
 21
       .0000000
0
LINE
  8
0
 10
      9.2000000
 20
       .0000000
 11
      9.3000000
 21
       .0000000
0
LINE
  8
0
 10
      9.3000000
 20
       .0000000
 11
      9.4000000
 21
       .0000000
0
LINE
  8
0
 10
      9.4000000
 20
       .0000000
 11
      9.5000000
 21
       .0000000
0
LINE
  8
0
 10
      9.5000000
 20
       .0000000
 11
      9.6000000
 21
       .0000000
0
LINE
  8
0
 10
      9.6000000
 20
       .0000000
 11
      9.7000000
 21
       .0000000
0
LINE
  8
0
 10
      9.7000000
 20
       .0000000
 11
      9.8000000
 21
       .0000000
0
LINE
  8
0
 10
      9.8000000
 20
       .0000000
 11
      9.9000000
 21
       .0000000
0
LINE
  8
0
 10
      9.9000000
 20
       .0000000
 11
     10.0000000
 21
       .0000000
0
LINE
  8
0
 10
     10.0000000
 20
       .0000000
 11
     10.1000000
 21
       .0000000
0
LINE
  8
0
 10
     10.1000000
 20
       .0000000
 11
     10.2000000
 21
       .0000000
0
LINE
  8
0
 10
     10.2000000
 20
       .0000000
 11
     10.3000000
 21
       .0000000
0
LINE
  8
0
 10
     10.3000000
 20
       .0000000
 11
     10.4000000
 21
       .0000000
0
LINE
  8
0
 10
     10.4000000
 20
       .0000000
 11
     10.5000000
 21
       .0000000
0
LINE
  8
0
 10
     10.5000000
 20
       .0000000
 11
     10.6000000
 21
       .0000000
0
LINE
  8
0
 10
     10.6000000
 20
       .0000000
 11
     10.7000000
 21
       .0000000
0
LINE
  8
0
 10
     10.7000000
 20
       .0000000
 11
     10.8000000
 21
       .0000000
0
LINE
  8
0
 10
     10.8000000
 20
       .0000000
 11
     10.9000000
 21
       .0000000
0
LINE
  8
0
 10
     10.9000000
 20
       .0000000
 11
     11.0000000
 21
       .0000000
0
LINE
  8
0
 10
     11.0000000
 20
       .0000000
 11
     11.1000000
 21
       .0000000
0
LINE
  8
0
 10
     11.1000000
 20
       .0000000
 11
     11.2000000
 21
       .0000000
0
LINE
  8
0
 10
     11.2000000
 20
       .0000000
 11
     11.3000000
 21
       .0000000
0
LINE
  8
0
 10
     11.3000000
 20
       .0000000
 11
     11.4000000
 21
       .0000000
0
LINE
  8
0
 10
     11.4000000
 20
       .0000000
 11
     11.5000000
 21
       .0000000
0
LINE
  8
0
 10
     11.5000000
 20
       .0000000
 11
     11.6000000
 21
       .0000000
0
LINE
  8
0
 10
     11.6000000
 20
       .0000000
 11
     11.7000000
 21
       .0000000
0
LINE
  8
0
 10
     11.7000000
 20
       .0000000
 11
     11.8000000
 21
       .0000000
0
LINE
  8
0
 10
     11.8000000
 20
       .0000000
 11
     11.9000000
 21
       .0000000
0
LINE
  8
0
 10
     11.9000000
 20
       .0000000
 11
     12.0000000
 21
       .0000000
0
LINE
  8
0
 10
     12.0000000
 20
       .0000000
 11
     12.1000000
 21
       .0000000
0
LINE
  8
0
 10
     12.1000000
 20
       .0000000
 11
     12.2000000
 21
       .0000000
0
LINE
  8
0
 10
     12.2000000
 20
       .0000000
 11
     12.3000000
 21
       .0000000
0
LINE
  8
0
 10
     12.3000000
 20
       .0000000
 11
     12.4000000
 21
       .0000000
0
LINE
  8
0
 10
     12.4000000
 20
       .0000000
 11
     12.5000000
 21
       .0000000
0
LINE
  8
0
 10
     12.5000000
 20
       .0000000
 11
     12.6000000
 21
       .0000000
0
LINE
  8
0
 10
     12.6000000
 20
       .0000000
 11
     12.7000000
 21
       .0000000
0
LINE
  8
0
 10
     12.7000000
 20
       .0000000
 11
     12.8000000
 21
       .0000000
0
LINE
  8
0
 10
     12.8000000
 20
       .0000000
 11
     12.9000000
 21
       .0000000
0
LINE
  8
0
 10
     12.9000000
 20
       .0000000
 11
     13.0000000
 21
       .0000000
0
LINE
  8
0
 10
     13.0000000
 20
       .0000000
 11
     13.1000000
 21
       .0000000
0
LINE
  8
0
 10
     13.1000000
 20
       .0000000
 11
     13.2000000
 21
       .0000000
0
LINE
  8
0
 10
     13.2000000
 20
       .0000000
 11
     13.3000000
 21
       .0000000
0
LINE
  8
0
 10
     13.3000000
 20
       .0000000
 11
     13.4000000
 21
       .0000000
0
LINE
  8
0
 10
     13.4000000
 20
       .0000000
 11
     13.5000000
 21
       .0000000
0
LINE
  8
0
 10
     13.5000000
 20
       .0000000
 11
     13.6000000
 21
       .0000000
0
LINE
  8
0
 10
     13.6000000
 20
       .0000000
 11
     13.7000000
 21
       .0000000
0
LINE
  8
0
 10
     13.7000000
 20
       .0000000
 11
     13.8000000
 21
       .0000000
0
LINE
  8
0
 10
     13.8000000
 20
       .0000000
 11
     13.9000000
 21
       .0000000
0
LINE
  8
0
 10
     13.9000000
 20
       .0000000
 11
     14.0000000
 21
       .0000000
0
LINE
  8
0
 10
     14.0000000
 20
       .0000000
 11
     14.1000000
 21
       .0000000
0
LINE
  8
0
 10
     14.1000000
 20
       .0000000
 11
     14.2000000
 21
       .0000000
0
LINE
  8
0
 10
     14.2000000
 20
       .0000000
 11
     14.3000000
 21
       .0000000
0
LINE
  8
0
 10
     14.3000000
 20
       .0000000
 11
     14.4000000
 21
       .0000000
0
LINE
  8
0
 10
     14.4000000
 20
       .0000000
 11
     14.5000000
 21
       .0000000
0
LINE
  8
0
 10
     14.5000000
 20
       .0000000
 11
     14.6000000
 21
       .0000000
0
LINE
  8
0
 10
     14.6000000
 20
       .0000000
 11
     14.7000000
 21
       .0000000
0
LINE
  8
0
 10
     14.7000000
 20
       .0000000
 11
     14.8000000
 21
       .0000000
0
LINE
  8
0
 10
     14.8000000
 20
       .0000000
 11
     14.9000000
 21
       .0000000
0
LINE
  8
0
 10
     14.9000000
 20
       .0000000
 11
     15.0000000
 21
       .0000000
0
LINE
  8
0
 10
     15.0000000
 20
       .0000000
 11
     15.1000000
 21
       .0000000
0
LINE
  8
0
 10
     15.1000000
 20
       .0000000
 11
     15.2000000
 21
       .0000000
0
LINE
  8
0
 10
     15.2000000
 20
       .0000000
 11
     15.3000000
 21
       .0000000
0
LINE
  8
0
 10
     15.3000000
 20
       .0000000
 11
     15.4000000
 21
       .0000000
0
LINE
  8
0
 10
     15.4000000
 20
       .0000000
 11
     15.5000000
 21
       .0000000
0
LINE
  8
0
 10
     15.5000000
 20
       .0000000
 11
     15.6000000
 21
       .0000000
0
LINE
  8
0
 10
     15.6000000
 20
       .0000000
 11
     15.7000000
 21
       .0000000
0
LINE
  8
0
 10
     15.7000000
 20
       .0000000
 11
     15.8000000
 21
       .0000000
0
LINE
  8
0
 10
     15.8000000
 20
       .0000000
 11
     15.9000000
 21
       .0000000
0
LINE
  8
0
 10
     15.9000000
 20
       .0000000
 11
     16.0000000
 21
       .0000000
0
LINE
  8
0
 10
     16.0000000
 20
       .0000000
 11
     16.1000000
 21
       .0000000
0
LINE
  8
0
 10
     16.1000000
 20
       .0000000
 11
     16.2000000
 21
       .0000000
0
LINE
  8
0
 10
     16.2000000
 20
       .0000000
 11
     16.3000000
 21
       .0000000
0
LINE
  8
0
 10
     16.3000000
 20
       .0000000
 11
     16.4000000
 21
       .0000000
0
LINE
  8
0
 10
     16.4000000
 20
       .0000000
 11
     16.5000000
 21
       .0000000
0
LINE
  8
0
 10
     16.5000000
 20
       .0000000
 11
     16.6000000
 21
       .0000000
0
LINE
  8
0
 10
     16.6000000
 20
       .0000000
 11
     16.7000000
 21
       .0000000
0
LINE
  8
0
 10
     16.7000000
 20
       .0000000
 11
     16.8000000
 21
       .0000000
0
LINE
  8
0
 10
     16.8000000
 20
       .0000000
 11
     16.9000000
 21
       .0000000
0
LINE
  8
0
 10
     16.9000000
 20
       .0000000
 11
     17.0000000
 21
       .0000000
0
LINE
  8
0
 10
     17.0000000
 20
       .0000000
 11
     17.1000000
 21
       .0000000
0
LINE
  8
0
 10
     17.1000000
 20
       .0000000
 11
     17.2000000
 21
       .0000000
0
LINE
  8
0
 10
     17.2000000
 20
       .0000000
 11
     17.3000000
 21
       .0000000
0
LINE
  8
0
 10
     17.3000000
 20
       .0000000
 11
     17.4000000
 21
       .0000000
0
LINE
  8
0
 10
     17.4000000
 20
       .0000000
 11
     17.5000000
 21
       .0000000
0
LINE
  8
0
 10
     17.5000000
 20
       .0000000
 11
     17.6000000
 21
       .0000000
0
LINE
  8
0
 10
     17.6000000
 20
       .0000000
 11
     17.7000000
 21
       .0000000
0
LINE
  8
0
 10
     17.7000000
 20
       .0000000
 11
     17.8000000
 21
       .0000000
0
LINE
  8
0
 10
     17.8000000
 20
       .0000000
 11
     17.9000000
 21
       .0000000
0
LINE
  8
0
 10
     17.9000000
 20
       .0000000
 11
     18.0000000
 21
       .0000000
0
LINE
  8
0
 10
     18.0000000
 20
       .0000000
 11
     18.1000000
 21
       .0000000
0
LINE
  8
0
 10
     18.1000000
 20
       .0000000
 11
     18.2000000
 21
       .0000000
0
LINE
  8
0
 10
     18.2000000
 20
       .0000000
 11
     18.3000000
 21
       .0000000
0
LINE
  8
0
 10
     18.3000000
 20
       .0000000
 11
     18.4000000
 21
       .0000000
0
LINE
  8
0
 10
     18.4000000
 20
       .0000000
 11
     18.5000000
 21
       .0000000
0
LINE
  8
0
 10
     18.5000000
 20
       .0000000
 11
     18.6000000
 21
       .0000000
0
LINE
  8
0
 10
     18.6000000
 20
       .0000000
 11
     18.7000000
 21
       .0000000
0
LINE
  8
0
 10
     18.7000000
 20
       .0000000
 11
     18.8000000
 21
       .0000000
0
LINE
  8
0
 10
     18.8000000
 20
       .0000000
 11
     18.9000000
 21
       .0000000
0
LINE
  8
0
 10
     18.9000000
 20
       .0000000
 11
     19.0000000
 21
       .0000000
0
LINE
  8
0
 10
     19.0000000
 20
       .0000000
 11
     19.1000000
 21
       .0000000
0
LINE
  8
0
 10
     19.1000000
 20
       .0000000
 11
     19.2000000
 21
       .0000000
0
LINE
  8
0
 10
     19.2000000
 20
       .0000000
 11
     19.3000000
 21
       .0000000
0
LINE
  8
0
 10
     19.3000000
 20
       .0000000
 11
     19.4000000
 21
       .0000000
0
LINE
  8
0
 10
     19.4000000
 20
       .0000000
 11
     19.5000000
 21
       .0000000
0
LINE
  8
0
 10
     19.5000000
 20
       .0000000
 11
     19.6000000
 21
       .0000000
0
LINE
  8
0
 10
     19.6000000
 20
       .0000000
 11
     19.7000000
 21
       .0000000
0
LINE
  8
0
 10
     19.7000000
 20
       .0000000
 11
     19.8000000
 21
       .0000000
0
LINE
  8
0
 10
     19.8000000
 20
       .0000000
 11
     19.9000000
 21
       .0000000
0
LINE
  8
0
 10
     19.9000000
 20
       .0000000
 11
     20.0000000
 21
       .0000000
0
LINE
  8
0
 10
     20.0000000
 20
       .0000000
 11
     20.1000000
 21
       .0000000
0
LINE
  8
0
 10
     20.1000000
 20
       .0000000
 11
     20.2000000
 21
       .0000000
0
LINE
  8
0
 10
     20.2000000
 20
       .0000000
 11
     20.3000000
 21
       .0000000
0
LINE
  8
0
 10
     20.3000000
 20
       .0000000
 11
     20.4000000
 21
       .0000000
0
LINE
  8
0
 10
     20.4000000
 20
       .0000000
 11
     20.5000000
 21
       .0000000
0
LINE
  8
0
 10
     20.5000000
 20
       .0000000
 11
     20.6000000
 21
       .0000000
0
LINE
  8
0
 10
     20.6000000
 20
       .0000000
 11
     20.7000000
 21
       .0000000
0
LINE
  8
0
 10
     20.7000000
 20
       .0000000
 11
     20.8000000
 21
       .0000000
0
LINE
  8
0
 10
     20.8000000
 20
       .0000000
 11
     20.9000000
 21
       .0000000
0
LINE
  8
0
 10
     20.9000000
 20
       .0000000
 11
     21.0000000
 21
       .0000000
0
LINE
  8
0
 10
     21.0000000
 20
       .0000000
 11
     21.1000000
 21
       .0000000
0
LINE
  8
0
 10
     21.1000000
 20
       .0000000
 11
     21.2000000
 21
       .0000000
0
LINE
  8
0
 10
     21.2000000
 20
       .0000000
 11
     21.3000000
 21
       .0000000
0
LINE
  8
0
 10
     21.3000000
 20
       .0000000
 11
     21.4000000
 21
       .0000000
0
LINE
  8
0
 10
     21.4000000
 20
       .0000000
 11
     21.5000000
 21
       .0000000
0
LINE
  8
0
 10
     21.5000000
 20
       .0000000
 11
     21.6000000
 21
       .0000000
0
LINE
  8
0
 10
     21.6000000
 20
       .0000000
 11
     21.7000000
 21
       .0000000
0
LINE
  8
0
 10
     21.7000000
 20
       .0000000
 11
     21.8000000
 21
       .0000000
0
LINE
  8
0
 10
     21.8000000
 20
       .0000000
 11
     21.9000000
 21
       .0000000
0
LINE
  8
0
 10
     21.9000000
 20
       .0000000
 11
     22.0000000
 21
       .0000000
0
LINE
  8
0
 10
     22.0000000
 20
       .0000000
 11
     22.1000000
 21
       .0000000
0
LINE
  8
0
 10
     22.1000000
 20
       .0000000
 11
     22.2000000
 21
       .0000000
0
LINE
  8
0
 10
     22.2000000
 20
       .0000000
 11
     22.3000000
 21
       .0000000
0
LINE
  8
0
 10
     22.3000000
 20
       .0000000
 11
     22.4000000
 21
       .0000000
0
LINE
  8
0
 10
     22.4000000
 20
       .0000000
 11
     22.5000000
 21
       .0000000
0
LINE
  8
0
 10
     22.5000000
 20
       .0000000
 11
     22.6000000
 21
       .0000000
0
LINE
  8
0
 10
     22.6000000
 20
       .0000000
 11
     22.7000000
 21
       .0000000
0
LINE
  8
0
 10
     22.7000000
 20
       .0000000
 11
     22.8000000
 21
       .0000000
0
LINE
  8
0
 10
     22.8000000
 20
       .0000000
 11
     22.9000000
 21
       .0000000
0
LINE
  8
0
 10
     22.9000000
 20
       .0000000
 11
     23.0000000
 21
       .0000000
0
LINE
  8
0
 10
     23.0000000
 20
       .0000000
 11
     23.1000000
 21
       .0000000
0
LINE
  8
0
 10
     23.1000000
 20
       .0000000
 11
     23.2000000
 21
       .0000000
0
LINE
  8
0
 10
     23.2000000
 20
       .0000000
 11
     23.3000000
 21
       .0000000
0
LINE
  8
0
 10
     23.3000000
 20
       .0000000
 11
     23.4000000
 21
       .0000000
0
LINE
  8
0
 10
     23.4000000
 20
       .0000000
 11
     23.5000000
 21
       .0000000
0
LINE
  8
0
 10
     23.5000000
 20
       .0000000
 11
     23.6000000
 21
       .0000000
0
LINE
  8
0
 10
     23.6000000
 20
       .0000000
 11
     23.7000000
 21
       .0000000
0
LINE
  8
0
 10
     23.7000000
 20
       .0000000
 11
     23.8000000
 21
       .0000000
0
LINE
  8
0
 10
     23.8000000
 20
       .0000000
 11
     23.9000000
 21
       .0000000
0
LINE
  8
0
 10
     23.9000000
 20
       .0000000
 11
     24.0000000
 21
       .0000000
0
LINE
  8
0
 10
     24.0000000
 20
       .0000000
 11
     24.1000000
 21
       .0000000
0
LINE
  8
0
 10
     24.1000000
 20
       .0000000
 11
     24.2000000
 21
       .0000000
0
LINE
  8
0
 10
     24.2000000
 20
       .0000000
 11
     24.3000000
 21
       .0000000
0
LINE
  8
0
 10
     24.3000000
 20
       .0000000
 11
     24.4000000
 21
       .0000000
0
LINE
  8
0
 10
     24.4000000
 20
       .0000000
 11
     24.5000000
 21
       .0000000
0
LINE
  8
0
 10
     24.5000000
 20
       .0000000
 11
     24.6000000
 21
       .0000000
0
LINE
  8
0
 10
     24.6000000
 20
       .0000000
 11
     24.7000000
 21
       .0000000
0
LINE
  8
0
 10
     24.7000000
 20
       .0000000
 11
     24.8000000
 21
       .0000000
0
LINE
  8
0
 10
     24.8000000
 20
       .0000000
 11
     24.9000000
 21
       .0000000
0
LINE
  8
0
 10
     24.9000000
 20
       .0000000
 11
     25.0000000
 21
       .0000000
0
LINE
  8
0
 10
     25.0000000
 20
       .0000000
 11
     25.1000000
 21
       .0000000
0
LINE
  8
0
 10
     25.1000000
 20
       .0000000
 11
     25.2000000
 21
       .0000000
0
LINE
  8
0
 10
     25.2000000
 20
       .0000000
 11
     25.3000000
 21
       .0000000
0
LINE
  8
0
 10
     25.3000000
 20
       .0000000
 11
     25.4000000
 21
       .0000000
0
LINE
  8
0
 10
     25.4000000
 20
       .0000000
 11
     25.5000000
 21
       .0000000
0
LINE
  8
0
 10
     25.5000000
 20
       .0000000
 11
     25.6000000
 21
       .0000000
0
LINE
  8
0
 10
     25.6000000
 20
       .0000000
 11
     25.7000000
 21
       .0000000
0
LINE
  8
0
 10
     25.7000000
 20
       .0000000
 11
     25.8000000
 21
       .0000000
0
LINE
  8
0
 10
     25.8000000
 20
       .0000000
 11
     25.9000000
 21
       .0000000
0
LINE
  8
0
 10
     25.9000000
 20
       .0000000
 11
     26.0000000
 21
       .0000000
0
LINE
  8
0
 10
     26.0000000
 20
       .0000000
 11
     26.1000000
 21
       .0000000
0
LINE
  8
0
 10
     26.1000000
 20
       .0000000
 11
     26.2000000
 21
       .0000000
0
LINE
  8
0
 10
     26.2000000
 20
       .0000000
 11
     26.3000000
 21
       .0000000
0
LINE
  8
0
 10
     26.3000000
 20
       .0000000
 11
     26.4000000
 21
       .0000000
0
LINE
  8
0
 10
     26.4000000
 20
       .0000000
 11
     26.5000000
 21
       .0000000
0
LINE
  8
0
 10
     26.5000000
 20
       .0000000
 11
     26.6000000
 21
       .0000000
0
LINE
  8
0
 10
     26.6000000
 20
       .0000000
 11
     26.7000000
 21
       .0000000
0
LINE
  8
0
 10
     26.7000000
 20
       .0000000
 11
     26.8000000
 21
       .0000000
0
LINE
  8
0
 10
     26.8000000
 20
       .0000000
 11
     26.9000000
 21
       .0000000
0
LINE
  8
0
 10
     26.9000000
 20
       .0000000
 11
     27.0000000
 21
       .0000000
0
LINE
  8
0
 10
     27.0000000
 20
       .0000000
 11
     27.1000000
 21
       .0000000
0
LINE
  8
0
 10
     27.1000000
 20
       .0000000
 11
     27.2000000
 21
       .0000000
0
LINE
  8
0
 10
     27.2000000
 20
       .0000000
 11
     27.3000000
 21
       .0000000
0
LINE
  8
0
 10
     27.3000000
 20
       .0000000
 11
     27.4000000
 21
       .0000000
0
LINE
  8
0
 10
     27.4000000
 20
       .0000000
 11
     27.5000000
 21
       .0000000
0
LINE
  8
0
 10
     27.5000000
 20
       .0000000
 11
     27.6000000
 21
       .0000000
0
LINE
  8
0
 10
     27.6000000
 20
       .0000000
 11
     27.7000000
 21
       .0000000
0
LINE
  8
0
 10
     27.7000000
 20
       .0000000
 11
     27.8000000
 21
       .0000000
0
LINE
  8
0
 10
     27.8000000
 20
       .0000000
 11
     27.9000000
 21
       .0000000
0
LINE
  8
0
 10
     27.9000000
 20
       .0000000
 11
     28.0000000
 21
       .0000000
0
LINE
  8
0
 10
     28.0000000
 20
       .0000000
 11
     28.1000000
 21
       .0000000
0
LINE
  8
0
 10
     28.1000000
 20
       .0000000
 11
     28.2000000
 21
       .0000000
0
LINE
  8
0
 10
     28.2000000
 20
       .0000000
 11
     28.3000000
 21
       .0000000
0
LINE
  8
0
 10
     28.3000000
 20
       .0000000
 11
     28.4000000
 21
       .0000000
0
LINE
  8
0
 10
     28.4000000
 20
       .0000000
 11
     28.5000000
 21
       .0000000
0
LINE
  8
0
 10
     28.5000000
 20
       .0000000
 11
     28.6000000
 21
       .0000000
0
LINE
  8
0
 10
     28.6000000
 20
       .0000000
 11
     28.7000000
 21
       .0000000
0
LINE
  8
0
 10
     28.7000000
 20
       .0000000
 11
     28.8000000
 21
       .0000000
0
LINE
  8
0
 10
     28.8000000
 20
       .0000000
 11
     28.9000000
 21
       .0000000
0
LINE
  8
0
 10
     28.9000000
 20
       .0000000
 11
     29.0000000
 21
       .0000000
0
LINE
  8
0
 10
     29.0000000
 20
       .0000000
 11
     29.1000000
 21
       .0000000
0
LINE
  8
0
 10
     29.1000000
 20
       .0000000
 11
     29.2000000
 21
       .0000000
0
LINE
  8
0
 10
     29.2000000
 20
       .0000000
 11
     29.3000000
 21
       .0000000
0
LINE
  8
0
 10
     29.3000000
 20
       .0000000
 11
     29.4000000
 21
       .0000000
0
LINE
  8
0
 10
     29.4000000
 20
       .0000000
 11
     29.5000000
 21
       .0000000
0
LINE
  8
0
 10
     29.5000000
 20
       .0000000
 11
     29.6000000
 21
       .0000000
0
LINE
  8
0
 10
     29.6000000
 20
       .0000000
 11
     29.7000000
 21
       .0000000
0
LINE
  8
0
 10
     29.7000000
 20
       .0000000
 11
     29.8000000
 21
       .0000000
0
LINE
  8
0
 10
     29.8000000
 20
       .0000000
 11
     29.9000000
 21
       .0000000
0
LINE
  8
0
 10
     29.9000000
 20
       .0000000
 11
     30.0000000
 21
       .0000000
0
LINE
  8
0
 10
     30.0000000
 20
       .0000000
 11
     30.1000000
 21
       .0000000
0
LINE
  8
0
 10
     30.1000000
 20
       .0000000
 11
     30.2000000
 21
       .0000000
0
LINE
  8
0
 10
     30.2000000
 20
       .0000000
 11
     30.3000000
 21
       .0000000
0
LINE
  8
0
 10
     30.3000000
 20
       .0000000
 11
     30.4000000
 21
       .0000000
0
LINE
  8
0
 10
     30.4000000
 20
       .0000000
 11
     30.5000000
 21
       .0000000
0
LINE
  8
0
 10
     30.5000000
 20
       .0000000
 11
     30.6000000
 21
       .0000000
0
LINE
  8
0
 10
     30.6000000
 20
       .0000000
 11
     30.7000000
 21
       .0000000
0
LINE
  8
0
 10
     30.7000000
 20
       .0000000
 11
     30.8000000
 21
       .0000000
0
LINE
  8
0
 10
     30.8000000
 20
       .0000000
 11
     30.9000000
 21
       .0000000
0
LINE
  8
0
 10
     30.9000000
 20
       .0000000
 11
     31.0000000
 21
       .0000000
0
LINE
  8
0
 10
     31.0000000
 20
       .0000000
 11
     31.1000000
 21
       .0000000
0
LINE
  8
0
 10
     31.1000000
 20
       .0000000
 11
     31.2000000
 21
       .0000000
0
LINE
  8
0
 10
     31.2000000
 20
       .0000000
 11
     31.3000000
 21
       .0000000
0
LINE
  8
0
 10
     31.3000000
 20
       .0000000
 11
     31.4000000
 21
       .0000000
0
LINE
  8
0
 10
     31.4000000
 20
       .0000000
 11
     31.5000000
 21
       .0000000
0
LINE
  8
0
 10
     31.5000000
 20
       .0000000
 11
     31.6000000
 21
       .0000000
0
LINE
  8
0
 10
     31.6000000
 20
       .0000000
 11
     31.7000000
 21
       .0000000
0
LINE
  8
0
 10
     31.7000000
 20
       .0000000
 11
     31.8000000
 21
       .0000000
0
LINE
  8
0
 10
     31.8000000
 20
       .0000000
 11
     31.9000000
 21
       .0000000
0
LINE
  8
0
 10
     31.9000000
 20
       .0000000
 11
     32.0000000
 21
       .0000000
0
LINE
  8
0
 10
     32.0000000
 20
       .0000000
 11
     32.1000000
 21
       .0000000
0
LINE
  8
0
 10
     32.1000000
 20
       .0000000
 11
     32.2000000
 21
       .0000000
0
LINE
  8
0
 10
     32.2000000
 20
       .0000000
 11
     32.3000000
 21
       .0000000
0
LINE
  8
0
 10
     32.3000000
 20
       .0000000
 11
     32.4000000
 21
       .0000000
0
LINE
  8
0
 10
     32.4000000
 20
       .0000000
 11
     32.5000000
 21
       .0000000
0
LINE
  8
0
 10
     32.5000000
 20
       .0000000
 11
     32.6000000
 21
       .0000000
0
LINE
  8
0
 10
     32.6000000
 20
       .0000000
 11
     32.7000000
 21
       .0000000
0
LINE
  8
0
 10
     32.7000000
 20
       .0000000
 11
     32.8000000
 21
       .0000000
0
LINE
  8
0
 10
     32.8000000
 20
       .0000000
 11
     32.9000000
 21
       .0000000
0
LINE
  8
0
 10
     32.9000000
 20
       .0000000
 11
     33.0000000
 21
       .0000000
0
LINE
  8
0
 10
     33.0000000
 20
       .0000000
 11
     33.1000000
 21
       .0000000
0
LINE
  8
0
 10
     33.1000000
 20
       .0000000
 11
     33.2000000
 21
       .0000000
0
LINE
  8
0
 10
     33.2000000
 20
       .0000000
 11
     33.3000000
 21
       .0000000
0
LINE
  8
0
 10
     33.3000000
 20
       .0000000
 11
     33.4000000
 21
       .0000000
0
LINE
  8
0
 10
     33.4000000
 20
       .0000000
 11
     33.5000000
 21
       .0000000
0
LINE
  8
0
 10
     33.5000000
 20
       .0000000
 11
     33.6000000
 21
       .0000000
0
LINE
  8
0
 10
     33.6000000
 20
       .0000000
 11
     33.7000000
 21
       .0000000
0
LINE
  8
0
 10
     33.7000000
 20
       .0000000
 11
     33.8000000
 21
       .0000000
0
LINE
  8
0
 10
     33.8000000
 20
       .0000000
 11
     33.9000000
 21
       .0000000
0
LINE
  8
0
 10
     33.9000000
 20
       .0000000
 11
     34.0000000
 21
       .0000000
0
LINE
  8
0
 10
     34.0000000
 20
       .0000000
 11
     34.1000000
 21
       .0000000
0
LINE
  8
0
 10
     34.1000000
 20
       .0000000
 11
     34.2000000
 21
       .0000000
0
LINE
  8
0
 10
     34.2000000
 20
       .0000000
 11
     34.3000000
 21
       .0000000
0
LINE
  8
0
 10
     34.3000000
 20
       .0000000
 11
     34.4000000
 21
       .0000000
0
LINE
  8
0
 10
     34.4000000
 20
       .0000000
 11
     34.5000000
 21
       .0000000
0
LINE
  8
0
 10
     34.5000000
 20
       .0000000
 11
     34.6000000
 21
       .0000000
0
LINE
  8
0
 10
     34.6000000
 20
       .0000000
 11
     34.7000000
 21
       .0000000
0
LINE
  8
0
 10
     34.7000000
 20
       .0000000
 11
     34.8000000
 21
       .0000000
0
LINE
  8
0
 10
     34.8000000
 20
       .0000000
 11
     34.9000000
 21
       .0000000
0
LINE
  8
0
 10
     34.9000000
 20
       .0000000
 11
     35.0000000
 21
       .0000000
0
LINE
  8
0
 10
     35.0000000
 20
       .0000000
 11
     35.1000000
 21
       .0000000
0
LINE
  8
0
 10
     35.1000000
 20
       .0000000
 11
     35.2000000
 21
       .0000000
0
LINE
  8
0
 10
     35.2000000
 20
       .0000000
 11
     35.3000000
 21
       .0000000
0
LINE
  8
0
 10
     35.3000000
 20
       .0000000
 11
     35.4000000
 21
       .0000000
0
LINE
  8
0
 10
     35.4000000
 20
       .0000000
 11
     35.5000000
 21
       .0000000
0
LINE
  8
0
 10
     35.5000000
 20
       .0000000
 11
     35.6000000
 21
       .0000000
0
LINE
  8
0
 10
     35.6000000
 20
       .0000000
 11
     35.7000000
 21
       .0000000
0
LINE
  8
0
 10
     35.7000000
 20
       .0000000
 11
     35.8000000
 21
       .0000000
0
LINE
  8
0
 10
     35.8000000
 20
       .0000000
 11
     35.9000000
 21
       .0000000
0
LINE
  8
0
 10
     35.9000000
 20
       .0000000
 11
     36.0000000
 21
       .0000000
0
LINE
  8
0
 10
     36.0000000
 20
       .0000000
 11
     36.1000000
 21
       .0000000
0
LINE
  8
0
 10
     36.1000000
 20
       .0000000
 11
     36.2000000
 21
       .0000000
0
LINE
  8
0
 10
     36.2000000
 20
       .0000000
 11
     36.3000000
 21
       .0000000
0
LINE
  8
0
 10
     36.3000000
 20
       .0000000
 11
     36.4000000
 21
       .0000000
0
LINE
  8
0
 10
     36.4000000
 20
       .0000000
 11
     36.5000000
 21
       .0000000
0
LINE
  8
0
 10
     36.5000000
 20
       .0000000
 11
     36.6000000
 21
       .0000000
0
LINE
  8
0
 10
     36.6000000
 20
       .0000000
 11
     36.7000000
 21
       .0000000
0
LINE
  8
0
 10
     36.7000000
 20
       .0000000
 11
     36.8000000
 21
       .0000000
0
LINE
  8
0
 10
     36.8000000
 20
       .0000000
 11
     36.9000000
 21
       .0000000
0
LINE
  8
0
 10
     36.9000000
 20
       .0000000
 11
     37.0000000
 21
       .0000000
0
LINE
  8
0
 10
     37.0000000
 20
       .0000000
 11
     37.1000000
 21
       .0000000
0
LINE
  8
0
 10
     37.1000000
 20
       .0000000
 11
     37.2000000
 21
       .0000000
0
LINE
  8
0
 10
     37.2000000
 20
       .0000000
 11
     37.3000000
 21
       .0000000
0
LINE
  8
0
 10
     37.3000000
 20
       .0000000
 11
     37.4000000
 21
       .0000000
0
LINE
  8
0
 10
     37.4000000
 20
       .0000000
 11
     37.5000000
 21
       .0000000
0
LINE
  8
0
 10
     37.5000000
 20
       .0000000
 11
     37.6000000
 21
       .0000000
0
LINE
  8
0
 10
     37.6000000
 20
       .0000000
 11
     37.7000000
 21
       .0000000
0
LINE
  8
0
 10
     37.7000000
 20
       .0000000
 11
     37.8000000
 21
       .0000000
0
LINE
  8
0
 10
     37.8000000
 20
       .0000000
 11
     37.9000000
 21
       .0000000
0
LINE
  8
0
 10
     37.9000000
 20
       .0000000
 11
     38.0000000
 21
       .0000000
0
LINE
  8
0
 10
     38.0000000
 20
       .0000000
 11
     38.1000000
 21
       .0000000
0
LINE
  8
0
 10
     38.1000000
 20
       .0000000
 11
     38.2000000
 21
       .0000000
0
LINE
  8
0
 10
     38.2000000
 20
       .0000000
 11
     38.3000000
 21
       .0000000
0
LINE
  8
0
 10
     38.3000000
 20
       .0000000
 11
     38.4000000
 21
       .0000000
0
LINE
  8
0
 10
     38.4000000
 20
       .0000000
 11
     38.5000000
 21
       .0000000
0
LINE
  8
0
 10
     38.5000000
 20
       .0000000
 11
     38.6000000
 21
       .0000000
0
LINE
  8
0
 10
     38.6000000
 20
       .0000000
 11
     38.7000000
 21
       .0000000
0
LINE
  8
0
 10
     38.7000000
 20
       .0000000
 11
     38.8000000
 21
       .0000000
0
LINE
  8
0
 10
     38.8000000
 20
       .0000000
 11
     38.9000000
 21
       .0000000
0
LINE
  8
0
 10
     38.9000000
 20
       .0000000
 11
     39.0000000
 21
       .0000000
0
LINE
  8
0
 10
     39.0000000
 20
       .0000000
 11
     39.1000000
 21
       .0000000
0
LINE
  8
0
 10
     39.1000000
 20
       .0000000
 11
     39.2000000
 21
       .0000000
0
LINE
  8
0
 10
     39.2000000
 20
       .0000000
 11
     39.3000000
 21
       .0000000
0
LINE
  8
0
 10
     39.3000000
 20
       .0000000
 11
     39.4000000
 21
       .0000000
0
LINE
  8
0
 10
     39.4000000
 20
       .0000000
 11
     39.5000000
 21
       .0000000
0
LINE
  8
0
 10
     39.5000000
 20
       .0000000
 11
     39.6000000
 21
       .0000000
0
LINE
  8
0
 10
     39.6000000
 20
       .0000000
 11
     39.7000000
 21
       .0000000
0
LINE
  8
0
 10
     39.7000000
 20
       .0000000
 11
     39.8000000
 21
       .0000000
0
LINE
  8
0
 10
     39.8000000
 20
       .0000000
 11
     39.9000000
 21
       .0000000
0
LINE
  8
0
 10
     39.9000000
 20
       .0000000
 11
     40.0000000
 21
       .0000000
0
LINE
  8
0
 10
     40.0000000
 20
       .0000000
 11
     40.1000000
 21
       .0000000
0
LINE
  8
0
 10
     40.1000000
 20
       .0000000
 11
     40.2000000
 21
       .0000000
0
LINE
  8
0
 10
     40.2000000
 20
       .0000000
 11
     40.3000000
 21
       .0000000
0
LINE
  8
0
 10
     40.3000000
 20
       .0000000
 11
     40.4000000
 21
       .0000000
0
LINE
  8
0
 10
     40.4000000
 20
       .0000000
 11
     40.5000000
 21
       .0000000
0
LINE
  8
0
 10
     40.5000000
 20
       .0000000
 11
     40.6000000
 21
       .0000000
0
LINE
  8
0
 10
     40.6000000
 20
       .0000000
 11
     40.7000000
 21
       .0000000
0
LINE
  8
0
 10
     40.7000000
 20
       .0000000
 11
     40.8000000
 21
       .0000000
0
LINE
  8
0
 10
     40.8000000
 20
       .0000000
 11
     40.9000000
 21
       .0000000
0
LINE
  8
0
 10
     40.9000000
 20
       .0000000
 11
     41.0000000
 21
       .0000000
0
LINE
  8
0
 10
     41.0000000
 20
       .0000000
 11
     41.1000000
 21
       .0000000
0
LINE
  8
0
 10
     41.1000000
 20
       .0000000
 11
     41.2000000
 21
       .0000000
0
LINE
  8
0
 10
     41.2000000
 20
       .0000000
 11
     41.3000000
 21
       .0000000
0
LINE
  8
0
 10
     41.3000000
 20
       .0000000
 11
     41.4000000
 21
       .0000000
0
LINE
  8
0
 10
     41.4000000
 20
       .0000000
 11
     41.5000000
 21
       .0000000
0
LINE
  8
0
 10
     41.5000000
 20
       .0000000
 11
     41.6000000
 21
       .0000000
0
LINE
  8
0
 10
     41.6000000
 20
       .0000000
 11
     41.7000000
 21
       .0000000
0
LINE
  8
0
 10
     41.7000000
 20
       .0000000
 11
     41.8000000
 21
       .0000000
0
LINE
  8
0
 10
     41.8000000
 20
       .0000000
 11
     41.9000000
 21
       .0000000
0
LINE
  8
0
 10
     41.9000000
 20
       .0000000
 11
     42.0000000
 21
       .0000000
0
LINE
  8
0
 10
     42.0000000
 20
       .0000000
 11
     42.1000000
 21
       .0000000
0
LINE
  8
0
 10
     42.1000000
 20
       .0000000
 11
     42.2000000
 21
       .0000000
0
LINE
  8
0
 10
     42.2000000
 20
       .0000000
 11
     42.3000000
 21
       .0000000
0
LINE
  8
0
 10
     42.3000000
 20
       .0000000
 11
     42.4000000
 21
       .0000000
0
LINE
  8
0
 10
     42.4000000
 20
       .0000000
 11
     42.5000000
 21
       .0000000
0
LINE
  8
0
 10
     42.5000000
 20
       .0000000
 11
     42.6000000
 21
       .0000000
0
LINE
  8
0
 10
     42.6000000
 20
       .0000000
 11
     42.7000000
 21
       .0000000
0
LINE
  8
0
 10
     42.7000000
 20
       .0000000
 11
     42.8000000
 21
       .0000000
0
LINE
  8
0
 10
     42.8000000
 20
       .0000000
 11
     42.9000000
 21
       .0000000
0
LINE
  8
0
 10
     42.9000000
 20
       .0000000
 11
     43.0000000
 21
       .0000000
0
LINE
  8
0
 10
     43.0000000
 20
       .0000000
 11
     43.1000000
 21
       .0000000
0
LINE
  8
0
 10
     43.1000000
 20
       .0000000
 11
     43.2000000
 21
       .0000000
0
LINE
  8
0
 10
     43.2000000
 20
       .0000000
 11
     43.3000000
 21
       .0000000
0
LINE
  8
0
 10
     43.3000000
 20
       .0000000
 11
     43.4000000
 21
       .0000000
0
LINE
  8
0
 10
     43.4000000
 20
       .0000000
 11
     43.5000000
 21
       .0000000
0
LINE
  8
0
 10
     43.5000000
 20
       .0000000
 11
     43.6000000
 21
       .0000000
0
LINE
  8
0
 10
     43.6000000
 20
       .0000000
 11
     43.7000000
 21
       .0000000
0
LINE
  8
0
 10
     43.7000000
 20
       .0000000
 11
     43.8000000
 21
       .0000000
0
LINE
  8
0
 10
     43.8000000
 20
       .0000000
 11
     43.9000000
 21
       .0000000
0
LINE
  8
0
 10
     43.9000000
 20
       .0000000
 11
     44.0000000
 21
       .0000000
0
LINE
  8
0
 10
     44.0000000
 20
       .0000000
 11
     44.1000000
 21
       .0000000
0
LINE
  8
0
 10
     44.1000000
 20
       .0000000
 11
     44.2000000
 21
       .0000000
0
LINE
  8
0
 10
     44.2000000
 20
       .0000000
 11
     44.3000000
 21
       .0000000
0
LINE
  8
0
 10
     44.3000000
 20
       .0000000
 11
     44.4000000
 21
       .0000000
0
LINE
  8
0
 10
     44.4000000
 20
       .0000000
 11
     44.5000000
 21
       .0000000
0
LINE
  8
0
 10
     44.5000000
 20
       .0000000
 11
     44.6000000
 21
       .0000000
0
LINE
  8
0
 10
     44.6000000
 20
       .0000000
 11
     44.7000000
 21
       .0000000
0
LINE
  8
0
 10
     44.7000000
 20
       .0000000
 11
     44.8000000
 21
       .0000000
0
LINE
  8
0
 10
     44.8000000
 20
       .0000000
 11
     44.9000000
 21
       .0000000
0
LINE
  8
0
 10
     44.9000000
 20
       .0000000
 11
     45.0000000
 21
       .0000000
0
LINE
  8
0
 10
     45.0000000
 20
       .0000000
 11
     45.1000000
 21
       .0000000
0
LINE
  8
0
 10
     45.1000000
 20
       .0000000
 11
     45.2000000
 21
       .0000000
0
LINE
  8
0
 10
     45.2000000
 20
       .0000000
 11
     45.3000000
 21
       .0000000
0
LINE
  8
0
 10
     45.3000000
 20
       .0000000
 11
     45.4000000
 21
       .0000000
0
LINE
  8
0
 10
     45.4000000
 20
       .0000000
 11
     45.5000000
 21
       .0000000
0
LINE
  8
0
 10
     45.5000000
 20
       .0000000
 11
     45.6000000
 21
       .0000000
0
LINE
  8
0
 10
     45.6000000
 20
       .0000000
 11
     45.7000000
 21
       .0000000
0
LINE
  8
0
 10
     45.7000000
 20
       .0000000
 11
     45.8000000
 21
       .0000000
0
LINE
  8
0
 10
     45.8000000
 20
       .0000000
 11
     45.9000000
 21
       .0000000
0
LINE
  8
0
 10
     45.9000000
 20
       .0000000
 11
     46.0000000
 21
       .0000000
0
LINE
  8
0
 10
     46.0000000
 20
       .0000000
 11
     46.1000000
 21
       .0000000
0
LINE
  8
0
 10
     46.1000000
 20
       .0000000
 11
     46.2000000
 21
       .0000000
0
LINE
  8
0
 10
     46.2000000
 20
       .0000000
 11
     46.3000000
 21
       .0000000
0
LINE
  8
0
 10
     46.3000000
 20
       .0000000
 11
     46.4000000
 21
       .0000000
0
LINE
  8
0
 10
     46.4000000
 20
       .0000000
 11
     46.5000000
 21
       .0000000
0
LINE
  8
0
 10
     46.5000000
 20
       .0000000
 11
     46.6000000
 21
       .0000000
0
LINE
  8
0
 10
     46.6000000
 20
       .0000000
 11
     46.7000000
 21
       .0000000
0
LINE
  8
0
 10
     46.7000000
 20
       .0000000
 11
     46.8000000
 21
       .0000000
0
LINE
  8
0
 10
     46.8000000
 20
       .0000000
 11
     46.9000000
 21
       .0000000
0
LINE
  8
0
 10
     46.9000000
 20
       .0000000
 11
     47.0000000
 21
       .0000000
0
LINE
  8
0
 10
     47.0000000
 20
       .0000000
 11
     47.1000000
 21
       .0000000
0
LINE
  8
0
 10
     47.1000000
 20
       .0000000
 11
     47.2000000
 21
       .0000000
0
LINE
  8
0
 10
     47.2000000
 20
       .0000000
 11
     47.3000000
 21
       .0000000
0
LINE
  8
0
 10
     47.3000000
 20
       .0000000
 11
     47.4000000
 21
       .0000000
0
LINE
  8
0
 10
     47.4000000
 20
       .0000000
 11
     47.5000000
 21
       .0000000
0
LINE
  8
0
 10
     47.5000000
 20
       .0000000
 11
     47.6000000
 21
       .0000000
0
LINE
  8
0
 10
     47.6000000
 20
       .0000000
 11
     47.7000000
 21
       .0000000
0
LINE
  8
0
 10
     47.7000000
 20
       .0000000
 11
     47.8000000
 21
       .0000000
0
LINE
  8
0
 10
     47.8000000
 20
       .0000000
 11
     47.9000000
 21
       .0000000
0
LINE
  8
0
 10
     47.9000000
 20
       .0000000
 11
     48.0000000
 21
       .0000000
0
LINE
  8
0
 10
     48.0000000
 20
       .0000000
 11
     48.1000000
 21
       .0000000
0
LINE
  8
0
 10
     48.1000000
 20
       .0000000
 11
     48.2000000
 21
       .0000000
0
LINE
  8
0
 10
     48.2000000
 20
       .0000000
 11
     48.3000000
 21
       .0000000
0
LINE
  8
0
 10
     48.3000000
 20
       .0000000
 11
     48.4000000
 21
       .0000000
0
LINE
  8
0
 10
     48.4000000
 20
       .0000000
 11
     48.5000000
 21
       .0000000
0
LINE
  8
0
 10
     48.5000000
 20
       .0000000
 11
     48.6000000
 21
       .0000000
0
LINE
  8
0
 10
     48.6000000
 20
       .0000000
 11
     48.7000000
 21
       .0000000
0
LINE
  8
0
 10
     48.7000000
 20
       .0000000
 11
     48.8000000
 21
       .0000000
0
LINE
  8
0
 10
     48.8000000
 20
       .0000000
 11
     48.9000000
 21
       .0000000
0
LINE
  8
0
 10
     48.9000000
 20
       .0000000
 11
     49.0000000
 21
       .0000000
0
LINE
  8
0
 10
     49.0000000
 20
       .0000000
 11
     49.1000000
 21
       .0000000
0
LINE
  8
0
 10
     49.1000000
 20
       .0000000
 11
     49.2000000
 21
       .0000000
0
LINE
  8
0
 10
     49.2000000
 20
       .0000000
 11
     49.3000000
 21
       .0000000
0
LINE
  8
0
 10
     49.3000000
 20
       .0000000
 11
     49.4000000
 21
       .0000000
0
LINE
  8
0
 10
     49.4000000
 20
       .0000000
 11
     49.5000000
 21
       .0000000
0
LINE
  8
0
 10
     49.5000000
 20
       .0000000
 11
     49.6000000
 21
       .0000000
0
LINE
  8
0
 10
     49.6000000
 20
       .0000000
 11
     49.7000000
 21
       .0000000
0
LINE
  8
0
 10
     49.7000000
 20
       .0000000
 11
     49.8000000
 21
       .0000000
0
LINE
  8
0
 10
     49.8000000
 20
       .0000000
 11
     49.9000000
 21
       .0000000
0
LINE
  8
0
 10
     49.9000000
 20
       .0000000
 11
     50.0000000
 21
       .0000000
0
LINE
  8
0
 10
     50.0000000
 20
       .0000000
 11
     50.1000000
 21
       .0000000
0
LINE
  8
0
 10
     50.1000000
 20
       .0000000
 11
     50.2000000
 21
       .0000000
0
LINE
  8
0
 10
     50.2000000
 20
       .0000000
 11
     50.3000000
 21
       .0000000
0
LINE
  8
0
 10
     50.3000000
 20
       .0000000
 11
     50.4000000
 21
       .0000000
0
LINE
  8
0
 10
     50.4000000
 20
       .0000000
 11
     50.5000000
 21
       .0000000
0
LINE
  8
0
 10
     50.5000000
 20
       .0000000
 11
     50.6000000
 21
       .0000000
0
LINE
  8
0
 10
     50.6000000
 20
       .0000000
 11
     50.7000000
 21
       .0000000
0
LINE
  8
0
 10
     50.7000000
 20
       .0000000
 11
     50.8000000
 21
       .0000000
0
LINE
  8
0
 10
     50.8000000
 20
       .0000000
 11
     50.9000000
 21
       .0000000
0
LINE
  8
0
 10
     50.9000000
 20
       .0000000
 11
     51.0000000
 21
       .0000000
0
LINE
  8
0
 10
     51.0000000
 20
       .0000000
 11
     51.1000000
 21
       .0000000
0
LINE
  8
0
 10
     51.1000000
 20
       .0000000
 11
     51.2000000
 21
       .0000000
0
LINE
  8
0
 10
     51.2000000
 20
       .0000000
 11
     51.3000000
 21
       .0000000
0
LINE
  8
0
 10
     51.3000000
 20
       .0000000
 11
     51.4000000
 21
       .0000000
0
LINE
  8
0
 10
     51.4000000
 20
       .0000000
 11
     51.5000000
 21
       .0000000
0
LINE
  8
0
 10
     51.5000000
 20
       .0000000
 11
     51.6000000
 21
       .0000000
0
LINE
  8
0
 10
     51.6000000
 20
       .0000000
 11
     51.7000000
 21
       .0000000
0
LINE
  8
0
 10
     51.7000000
 20
       .0000000
 11
     51.8000000
 21
       .0000000
0
LINE
  8
0
 10
     51.8000000
 20
       .0000000
 11
     51.9000000
 21
       .0000000
0
LINE
  8
0
 10
     51.9000000
 20
       .0000000
 11
     52.0000000
 21
       .0000000
0
LINE
  8
0
 10
     52.0000000
 20
       .0000000
 11
     52.1000000
 21
       .0000000
0
LINE
  8
0
 10
     52.1000000
 20
       .0000000
 11
     52.2000000
 21
       .0000000
0
LINE
  8
0
 10
     52.2000000
 20
       .0000000
 11
     52.3000000
 21
       .0000000
0
LINE
  8
0
 10
     52.3000000
 20
       .0000000
 11
     52.4000000
 21
       .0000000
0
LINE
  8
0
 10
     52.4000000
 20
       .0000000
 11
     52.5000000
 21
       .0000000
0
LINE
  8
0
 10
     52.5000000
 20
       .0000000
 11
     52.6000000
 21
       .0000000
0
LINE
  8
0
 10
     52.6000000
 20
       .0000000
 11
     52.7000000
 21
       .0000000
0
LINE
  8
0
 10
     52.7000000
 20
       .0000000
 11
     52.8000000
 21
       .0000000
0
LINE
  8
0
 10
     52.8000000
 20
       .0000000
 11
     52.9000000
 21
       .0000000
0
LINE
  8
0
 10
     52.9000000
 20
       .0000000
 11
     53.0000000
 21
       .0000000
0
LINE
  8
0
 10
     53.0000000
 20
       .0000000
 11
     53.1000000
 21
       .0000000
0
LINE
  8
0
 10
     53.1000000
 20
       .0000000
 11
     53.2000000
 21
       .0000000
0
LINE
  8
0
 10
     53.2000000
 20
       .0000000
 11
     53.3000000
 21
       .0000000
0
LINE
  8
0
 10
     53.3000000
 20
       .0000000
 11
     53.4000000
 21
       .0000000
0
LINE
  8
0
 10
     53.4000000
 20
       .0000000
 11
     53.5000000
 21
       .0000000
0
LINE
  8
0
 10
     53.5000000
 20
       .0000000
 11
     53.6000000
 21
       .0000000
0
LINE
  8
0
 10
     53.6000000
 20
       .0000000
 11
     53.7000000
 21
       .0000000
0
LINE
  8
0
 10
     53.7000000
 20
       .0000000
 11
     53.8000000
 21
       .0000000
0
LINE
  8
0
 10
     53.8000000
 20
       .0000000
 11
     53.9000000
 21
       .0000000
0
LINE
  8
0
 10
     53.9000000
 20
       .0000000
 11
     54.0000000
 21
       .0000000
0
LINE
  8
0
 10
     54.0000000
 20
       .0000000
 11
     54.1000000
 21
       .0000000
0
LINE
  8
0
 10
     54.1000000
 20
       .0000000
 11
     54.2000000
 21
       .0000000
0
LINE
  8
0
 10
     54.2000000
 20
       .0000000
 11
     54.3000000
 21
       .0000000
0
LINE
  8
0
 10
     54.3000000
 20
       .0000000
 11
     54.4000000
 21
       .0000000
0
LINE
  8
0
 10
     54.4000000
 20
       .0000000
 11
     54.5000000
 21
       .0000000
0
LINE
  8
0
 10
     54.5000000
 20
       .0000000
 11
     54.6000000
 21
       .0000000
0
LINE
  8
0
 10
     54.6000000
 20
       .0000000
 11
     54.7000000
 21
       .0000000
0
LINE
  8
0
 10
     54.7000000
 20
       .0000000
 11
     54.8000000
 21
       .0000000
0
LINE
  8
0
 10
     54.8000000
 20
       .0000000
 11
     54.9000000
 21
       .0000000
0
LINE
  8
0
 10
     54.9000000
 20
       .0000000
 11
     55.0000000
 21
       .0000000
0
LINE
  8
0
 10
     55.0000000
 20
       .0000000
 11
     55.1000000
 21
       .0000000
0
LINE
  8
0
 10
     55.1000000
 20
       .0000000
 11
     55.2000000
 21
       .0000000
0
LINE
  8
0
 10
     55.2000000
 20
       .0000000
 11
     55.3000000
 21
       .0000000
0
LINE
  8
0
 10
     55.3000000
 20
       .0000000
 11
     55.4000000
 21
       .0000000
0
LINE
  8
0
 10
     55.4000000
 20
       .0000000
 11
     55.5000000
 21
       .0000000
0
LINE
  8
0
 10
     55.5000000
 20
       .0000000
 11
     55.6000000
 21
       .0000000
0
LINE
  8
0
 10
     55.6000000
 20
       .0000000
 11
     55.7000000
 21
       .0000000
0
LINE
  8
0
 10
     55.7000000
 20
       .0000000
 11
     55.8000000
 21
       .0000000
0
LINE
  8
0
 10
     55.8000000
 20
       .0000000
 11
     55.9000000
 21
       .0000000
0
LINE
  8
0
 10
     55.9000000
 20
       .0000000
 11
     56.0000000
 21
       .0000000
0
LINE
  8
0
 10
     56.0000000
 20
       .0000000
 11
     56.1000000
 21
       .0000000
0
LINE
  8
0
 10
     56.1000000
 20
       .0000000
 11
     56.2000000
 21
       .0000000
0
LINE
  8
0
 10
     56.2000000
 20
       .0000000
 11
     56.3000000
 21
       .0000000
0
LINE
  8
0
 10
     56.3000000
 20
       .0000000
 11
     56.4000000
 21
       .0000000
0
LINE
  8
0
 10
     56.4000000
 20
       .0000000
 11
     56.5000000
 21
       .0000000
0
LINE
  8
0
 10
     56.5000000
 20
       .0000000
 11
     56.6000000
 21
       .0000000
0
LINE
  8
0
 10
     56.6000000
 20
       .0000000
 11
     56.7000000
 21
       .0000000
0
LINE
  8
0
 10
     56.7000000
 20
       .0000000
 11
     56.8000000
 21
       .0000000
0
LINE
  8
0
 10
     56.8000000
 20
       .0000000
 11
     56.9000000
 21
       .0000000
0
LINE
  8
0
 10
     56.9000000
 20
       .0000000
 11
     57.0000000
 21
       .0000000
0
LINE
  8
0
 10
     57.0000000
 20
       .0000000
 11
     57.1000000
 21
       .0000000
0
LINE
  8
0
 10
     57.1000000
 20
       .0000000
 11
     57.2000000
 21
       .0000000
0
LINE
  8
0
 10
     57.2000000
 20
       .0000000
 11
     57.3000000
 21
       .0000000
0
LINE
  8
0
 10
     57.3000000
 20
       .0000000
 11
     57.4000000
 21
       .0000000
0
LINE
  8
0
 10
     57.4000000
 20
       .0000000
 11
     57.5000000
 21
       .0000000
0
LINE
  8
0
 10
     57.5000000
 20
       .0000000
 11
     57.6000000
 21
       .0000000
0
LINE
  8
0
 10
     57.6000000
 20
       .0000000
 11
     57.7000000
 21
       .0000000
0
LINE
  8
0
 10
     57.7000000
 20
       .0000000
 11
     57.8000000
 21
       .0000000
0
LINE
  8
0
 10
     57.8000000
 20
       .0000000
 11
     57.9000000
 21
       .0000000
0
LINE
  8
0
 10
     57.9000000
 20
       .0000000
 11
     58.0000000
 21
       .0000000
0
LINE
  8
0
 10
     58.0000000
 20
       .0000000
 11
     58.1000000
 21
       .0000000
0
LINE
  8
0
 10
     58.1000000
 20
       .0000000
 11
     58.2000000
 21
       .0000000
0
LINE
  8
0
 10
     58.2000000
 20
       .0000000
 11
     58.3000000
 21
       .0000000
0
LINE
  8
0
 10
     58.3000000
 20
       .0000000
 11
     58.4000000
 21
       .0000000
0
LINE
  8
0
 10
     58.4000000
 20
       .0000000
 11
     58.5000000
 21
       .0000000
0
LINE
  8
0
 10
     58.5000000
 20
       .0000000
 11
     58.6000000
 21
       .0000000
0
LINE
  8
0
 10
     58.6000000
 20
       .0000000
 11
     58.7000000
 21
       .0000000
0
LINE
  8
0
 10
     58.7000000
 20
       .0000000
 11
     58.8000000
 21
       .0000000
0
LINE
  8
0
 10
     58.8000000
 20
       .0000000
 11
     58.9000000
 21
       .0000000
0
LINE
  8
0
 10
     58.9000000
 20
       .0000000
 11
     59.0000000
 21
       .0000000
0
LINE
  8
0
 10
     59.0000000
 20
       .0000000
 11
     59.1000000
 21
       .0000000
0
LINE
  8
0
 10
     59.1000000
 20
       .0000000
 11
     59.2000000
 21
       .0000000
0
LINE
  8
0
 10
     59.2000000
 20
       .0000000
 11
     59.3000000
 21
       .0000000
0
LINE
  8
0
 10
     59.3000000
 20
       .0000000
 11
     59.4000000
 21
       .0000000
0
LINE
  8
0
 10
     59.4000000
 20
       .0000000
 11
     59.5000000
 21
       .0000000
0
LINE
  8
0
 10
     59.5000000
 20
       .0000000
 11
     59.6000000
 21
       .0000000
0
LINE
  8
0
 10
     59.6000000
 20
       .0000000
 11
     59.7000000
 21
       .0000000
0
LINE
  8
0
 10
     59.7000000
 20
       .0000000
 11
     59.8000000
 21
       .0000000
0
LINE
  8
0
 10
     59.8000000
 20
       .0000000
 11
     59.9000000
 21
       .0000000
0
LINE
  8
0
 10
     59.9000000
 20
       .0000000
 11
     60.0000000
 21
       .0000000
0
LINE
  8
0
 10
     60.0000000
 20
       .0000000
 11
     60.1000000
 21
       .0000000
0
LINE
  8
0
 10
     60.1000000
 20
       .0000000
 11
     60.2000000
 21
       .0000000
0
LINE
  8
0
 10
     60.2000000
 20
       .0000000
 11
     60.3000000
 21
       .0000000
0
LINE
  8
0
 10
     60.3000000
 20
       .0000000
 11
     60.4000000
 21
       .0000000
0
LINE
  8
0
 10
     60.4000000
 20
       .0000000
 11
     60.5000000
 21
       .0000000
0
LINE
  8
0
 10
     60.5000000
 20
       .0000000
 11
     60.6000000
 21
       .0000000
0
LINE
  8
0
 10
     60.6000000
 20
       .0000000
 11
     60.7000000
 21
       .0000000
0
LINE
  8
0
 10
     60.7000000
 20
       .0000000
 11
     60.8000000
 21
       .0000000
0
LINE
  8
0
 10
     60.8000000
 20
       .0000000
 11
     60.9000000
 21
       .0000000
0
LINE
  8
0
 10
     60.9000000
 20
       .0000000
 11
     61.0000000
 21
       .0000000
0
LINE
  8
0
 10
     61.0000000
 20
       .0000000
 11
     61.1000000
 21
       .0000000
0
LINE
  8
0
 10
     61.1000000
 20
       .0000000
 11
     61.2000000
 21
       .0000000
0
LINE
  8
0
 10
     61.2000000
 20
       .0000000
 11
     61.3000000
 21
       .0000000
0
LINE
  8
0
 10
     61.3000000
 20
       .0000000
 11
     61.4000000
 21
       .0000000
0
LINE
  8
0
 10
     61.4000000
 20
       .0000000
 11
     61.5000000
 21
       .0000000
0
LINE
  8
0
 10
     61.5000000
 20
       .0000000
 11
     61.6000000
 21
       .0000000
0
LINE
  8
0
 10
     61.6000000
 20
       .0000000
 11
     61.7000000
 21
       .0000000
0
LINE
  8
0
 10
     61.7000000
 20
       .0000000
 11
     61.8000000
 21
       .0000000
0
LINE
  8
0
 10
     61.8000000
 20
       .0000000
 11
     61.9000000
 21
       .0000000
0
LINE
  8
0
 10
     61.9000000
 20
       .0000000
 11
     62.0000000
 21
       .0000000
0
LINE
  8
0
 10
     62.0000000
 20
       .0000000
 11
     62.1000000
 21
       .0000000
0
LINE
  8
0
 10
     62.1000000
 20
       .0000000
 11
     62.2000000
 21
       .0000000
0
LINE
  8
0
 10
     62.2000000
 20
       .0000000
 11
     62.3000000
 21
       .0000000
0
LINE
  8
0
 10
     62.3000000
 20
       .0000000
 11
     62.4000000
 21
       .0000000
0
LINE
  8
0
 10
     62.4000000
 20
       .0000000
 11
     62.5000000
 21
       .0000000
0
LINE
  8
0
 10
     62.5000000
 20
       .0000000
 11
     62.6000000
 21
       .0000000
0
LINE
  8
0
 10
     62.6000000
 20
       .0000000
 11
     62.7000000
 21
       .0000000
0
LINE
  8
0
 10
     62.7000000
 20
       .0000000
 11
     62.8000000
 21
       .0000000
0
LINE
  8
0
 10
     62.8000000
 20
       .0000000
 11
     62.9000000
 21
       .0000000
0
LINE
  8
0
 10
     62.9000000
 20
       .0000000
 11
     63.0000000
 21
       .0000000
0
LINE
  8
0
 10
     63.0000000
 20
       .0000000
 11
     63.1000000
 21
       .0000000
0
LINE
  8
0
 10
     63.1000000
 20
       .0000000
 11
     63.2000000
 21
       .0000000
0
LINE
  8
0
 10
     63.2000000
 20
       .0000000
 11
     63.3000000
 21
       .0000000
0
LINE
  8
0
 10
     63.3000000
 20
       .0000000
 11
     63.4000000
 21
       .0000000
0
LINE
  8
0
 10
     63.4000000
 20
       .0000000
 11
     63.5000000
 21
       .0000000
0
LINE
  8
0
 10
     63.5000000
 20
       .0000000
 11
     63.6000000
 21
       .0000000
0
LINE
  8
0
 10
     63.6000000
 20
       .0000000
 11
     63.7000000
 21
       .0000000
0
LINE
  8
0
 10
     63.7000000
 20
       .0000000
 11
     63.8000000
 21
       .0000000
0
LINE
  8
0
 10
     63.8000000
 20
       .0000000
 11
     63.9000000
 21
       .0000000
0
LINE
  8
0
 10
     63.9000000
 20
       .0000000
 11
     64.0000000
 21
       .0000000
0
LINE
  8
0
 10
     64.0000000
 20
       .0000000
 11
     64.1000000
 21
       .0000000
0
LINE
  8
0
 10
     64.1000000
 20
       .0000000
 11
     64.2000000
 21
       .0000000
0
LINE
  8
0
 10
     64.2000000
 20
       .0000000
 11
     64.3000000
 21
       .0000000
0
LINE
  8
0
 10
     64.3000000
 20
       .0000000
 11
     64.4000000
 21
       .0000000
0
LINE
  8
0
 10
     64.4000000
 20
       .0000000
 11
     64.5000000
 21
       .0000000
0
LINE
  8
0
 10
     64.5000000
 20
       .0000000
 11
     64.6000100
 21
       .0000000
0
LINE
  8
0
 10
     64.6000100
 20
       .0000000
 11
     64.7000000
 21
       .0000000
0
LINE
  8
0
 10
     64.7000000
 20
       .0000000
 11
     64.8000000
 21
       .0000000
0
LINE
  8
0
 10
     64.8000000
 20
       .0000000
 11
     64.9000000
 21
       .0000000
0
LINE
  8
0
 10
     64.9000000
 20
       .0000000
 11
     65.0000000
 21
       .0000000
0
LINE
  8
0
 10
     65.0000000
 20
       .0000000
 11
     65.1000100
 21
       .0000000
0
LINE
  8
0
 10
     65.1000100
 20
       .0000000
 11
     65.2000000
 21
       .0000000
0
LINE
  8
0
 10
     65.2000000
 20
       .0000000
 11
     65.3000000
 21
       .0000000
0
LINE
  8
0
 10
     65.3000000
 20
       .0000000
 11
     65.4000000
 21
       .0000000
0
LINE
  8
0
 10
     65.4000000
 20
       .0000000
 11
     65.5000000
 21
       .0000000
0
LINE
  8
0
 10
     65.5000000
 20
       .0000000
 11
     65.6000000
 21
       .0000000
0
LINE
  8
0
 10
     65.6000000
 20
       .0000000
 11
     65.7000000
 21
       .0000000
0
LINE
  8
0
 10
     65.7000000
 20
       .0000000
 11
     65.8000000
 21
       .0000000
0
LINE
  8
0
 10
     65.8000000
 20
       .0000000
 11
     65.9000000
 21
       .0000000
0
LINE
  8
0
 10
     65.9000000
 20
       .0000000
 11
     66.0000000
 21
       .0000000
0
LINE
  8
0
 10
     66.0000000
 20
       .0000000
 11
     66.1000000
 21
       .0000000
0
LINE
  8
0
 10
     66.1000000
 20
       .0000000
 11
     66.2000000
 21
       .0000000
0
LINE
  8
0
 10
     66.2000000
 20
       .0000000
 11
     66.3000000
 21
       .0000000
0
LINE
  8
0
 10
     66.3000000
 20
       .0000000
 11
     66.3999900
 21
       .0000000
0
LINE
  8
0
 10
     66.3999900
 20
       .0000000
 11
     66.5000000
 21
       .0000000
0
LINE
  8
0
 10
     66.5000000
 20
       .0000000
 11
     66.6000000
 21
       .0000000
0
LINE
  8
0
 10
     66.6000000
 20
       .0000000
 11
     66.7000000
 21
       .0000000
0
LINE
  8
0
 10
     66.7000000
 20
       .0000000
 11
     66.8000000
 21
       .0000000
0
LINE
  8
0
 10
     66.8000000
 20
       .0000000
 11
     66.9000000
 21
       .0000000
0
LINE
  8
0
 10
     66.9000000
 20
       .0000000
 11
     67.0000000
 21
       .0000000
0
LINE
  8
0
 10
     67.0000000
 20
       .0000000
 11
     67.1000000
 21
       .0000000
0
LINE
  8
0
 10
     67.1000000
 20
       .0000000
 11
     67.2000000
 21
       .0000000
0
LINE
  8
0
 10
     67.2000000
 20
       .0000000
 11
     67.3000000
 21
       .0000000
0
LINE
  8
0
 10
     67.3000000
 20
       .0000000
 11
     67.4000000
 21
       .0000000
0
LINE
  8
0
 10
     67.4000000
 20
       .0000000
 11
     67.5000000
 21
       .0000000
0
LINE
  8
0
 10
     67.5000000
 20
       .0000000
 11
     67.6000000
 21
       .0000000
0
LINE
  8
0
 10
     67.6000000
 20
       .0000000
 11
     67.7000000
 21
       .0000000
0
LINE
  8
0
 10
     67.7000000
 20
       .0000000
 11
     67.8000000
 21
       .0000000
0
LINE
  8
0
 10
     67.8000000
 20
       .0000000
 11
     67.9000000
 21
       .0000000
0
LINE
  8
0
 10
     67.9000000
 20
       .0000000
 11
     68.0000000
 21
       .0000000
0
LINE
  8
0
 10
     68.0000000
 20
       .0000000
 11
     68.1000000
 21
       .0000000
0
LINE
  8
0
 10
     68.1000000
 20
       .0000000
 11
     68.2000000
 21
       .0000000
0
LINE
  8
0
 10
     68.2000000
 20
       .0000000
 11
     68.3000000
 21
       .0000000
0
LINE
  8
0
 10
     68.3000000
 20
       .0000000
 11
     68.4000000
 21
       .0000000
0
LINE
  8
0
 10
     68.4000000
 20
       .0000000
 11
     68.5000000
 21
       .0000000
0
LINE
  8
0
 10
     68.5000000
 20
       .0000000
 11
     68.6000000
 21
       .0000000
0
LINE
  8
0
 10
     68.6000000
 20
       .0000000
 11
     68.7000000
 21
       .0000000
0
LINE
  8
0
 10
     68.7000000
 20
       .0000000
 11
     68.8000000
 21
       .0000000
0
LINE
  8
0
 10
     68.8000000
 20
       .0000000
 11
     68.9000000
 21
       .0000000
0
LINE
  8
0
 10
     68.9000000
 20
       .0000000
 11
     69.0000000
 21
       .0000000
0
LINE
  8
0
 10
     69.0000000
 20
       .0000000
 11
     69.1000000
 21
       .0000000
0
LINE
  8
0
 10
     69.1000000
 20
       .0000000
 11
     69.2000000
 21
       .0000000
0
LINE
  8
0
 10
     69.2000000
 20
       .0000000
 11
     69.3000000
 21
       .0000000
0
LINE
  8
0
 10
     69.3000000
 20
       .0000000
 11
     69.4000000
 21
       .0000000
0
LINE
  8
0
 10
     69.4000000
 20
       .0000000
 11
     69.5000000
 21
       .0000000
0
LINE
  8
0
 10
     69.5000000
 20
       .0000000
 11
     69.6000000
 21
       .0000000
0
LINE
  8
0
 10
     69.6000000
 20
       .0000000
 11
     69.7000000
 21
       .0000000
0
LINE
  8
0
 10
     69.7000000
 20
       .0000000
 11
     69.8000000
 21
       .0000000
0
LINE
  8
0
 10
     69.8000000
 20
       .0000000
 11
     69.9000000
 21
       .0000000
0
LINE
  8
0
 10
     69.9000000
 20
       .0000000
 11
     70.0000000
 21
       .0000000
0
LINE
  8
0
 10
     70.0000000
 20
       .0000000
 11
     70.1000000
 21
       .0000000
0
LINE
  8
0
 10
     70.1000000
 20
       .0000000
 11
     70.2000000
 21
       .0000000
0
LINE
  8
0
 10
     70.2000000
 20
       .0000000
 11
     70.3000000
 21
       .0000000
0
LINE
  8
0
 10
     70.3000000
 20
       .0000000
 11
     70.4000000
 21
       .0000000
0
LINE
  8
0
 10
     70.4000000
 20
       .0000000
 11
     70.5000000
 21
       .0000000
0
LINE
  8
0
 10
     70.5000000
 20
       .0000000
 11
     70.6000000
 21
       .0000000
0
LINE
  8
0
 10
     70.6000000
 20
       .0000000
 11
     70.7000000
 21
       .0000000
0
LINE
  8
0
 10
     70.7000000
 20
       .0000000
 11
     70.8000000
 21
       .0000000
0
LINE
  8
0
 10
     70.8000000
 20
       .0000000
 11
     70.9000000
 21
       .0000000
0
LINE
  8
0
 10
     70.9000000
 20
       .0000000
 11
     71.0000000
 21
       .0000000
0
LINE
  8
0
 10
     71.0000000
 20
       .0000000
 11
     71.1000100
 21
       .0000000
0
LINE
  8
0
 10
     71.1000100
 20
       .0000000
 11
     71.2000000
 21
       .0000000
0
LINE
  8
0
 10
     71.2000000
 20
       .0000000
 11
     71.3000000
 21
       .0000000
0
LINE
  8
0
 10
     71.3000000
 20
       .0000000
 11
     71.4000000
 21
       .0000000
0
LINE
  8
0
 10
     71.4000000
 20
       .0000000
 11
     71.5000000
 21
       .0000000
0
LINE
  8
0
 10
     71.5000000
 20
       .0000000
 11
     71.6000000
 21
       .0000000
0
LINE
  8
0
 10
     71.6000000
 20
       .0000000
 11
     71.7000000
 21
       .0000000
0
LINE
  8
0
 10
     71.7000000
 20
       .0000000
 11
     71.8000000
 21
       .0000000
0
LINE
  8
0
 10
     71.8000000
 20
       .0000000
 11
     71.9000000
 21
       .0000000
0
LINE
  8
0
 10
     71.9000000
 20
       .0000000
 11
     72.0000000
 21
       .0000000
0
LINE
  8
0
 10
     72.0000000
 20
       .0000000
 11
     72.1000000
 21
       .0000000
0
LINE
  8
0
 10
     72.1000000
 20
       .0000000
 11
     72.2000000
 21
       .0000000
0
LINE
  8
0
 10
     72.2000000
 20
       .0000000
 11
     72.3000000
 21
       .0000000
0
LINE
  8
0
 10
     72.3000000
 20
       .0000000
 11
     72.3999900
 21
       .0000000
0
LINE
  8
0
 10
     72.3999900
 20
       .0000000
 11
     72.5000000
 21
       .0000000
0
LINE
  8
0
 10
     72.5000000
 20
       .0000000
 11
     72.6000000
 21
       .0000000
0
LINE
  8
0
 10
     72.6000000
 20
       .0000000
 11
     72.7000000
 21
       .0000000
0
LINE
  8
0
 10
     72.7000000
 20
       .0000000
 11
     72.8000000
 21
       .0000000
0
LINE
  8
0
 10
     72.8000000
 20
       .0000000
 11
     72.8999900
 21
       .0000000
0
LINE
  8
0
 10
     72.8999900
 20
       .0000000
 11
     73.0000000
 21
       .0000000
0
LINE
  8
0
 10
     73.0000000
 20
       .0000000
 11
     73.1000000
 21
       .0000000
0
LINE
  8
0
 10
     73.1000000
 20
       .0000000
 11
     73.2000000
 21
       .0000000
0
LINE
  8
0
 10
     73.2000000
 20
       .0000000
 11
     73.3000000
 21
       .0000000
0
LINE
  8
0
 10
     73.3000000
 20
       .0000000
 11
     73.4000000
 21
       .0000000
0
LINE
  8
0
 10
     73.4000000
 20
       .0000000
 11
     73.5000000
 21
       .0000000
0
LINE
  8
0
 10
     73.5000000
 20
       .0000000
 11
     73.6000000
 21
       .0000000
0
LINE
  8
0
 10
     73.6000000
 20
       .0000000
 11
     73.7000000
 21
       .0000000
0
LINE
  8
0
 10
     73.7000000
 20
       .0000000
 11
     73.8000000
 21
       .0000000
0
LINE
  8
0
 10
     73.8000000
 20
       .0000000
 11
     73.9000000
 21
       .0000000
0
LINE
  8
0
 10
     73.9000000
 20
       .0000000
 11
     74.0000000
 21
       .0000000
0
LINE
  8
0
 10
     74.0000000
 20
       .0000000
 11
     74.1000000
 21
       .0000000
0
LINE
  8
0
 10
     74.1000000
 20
       .0000000
 11
     74.2000000
 21
       .0000000
0
LINE
  8
0
 10
     74.2000000
 20
       .0000000
 11
     74.3000000
 21
       .0000000
0
LINE
  8
0
 10
     74.3000000
 20
       .0000000
 11
     74.4000000
 21
       .0000000
0
LINE
  8
0
 10
     74.4000000
 20
       .0000000
 11
     74.5000000
 21
       .0000000
0
LINE
  8
0
 10
     74.5000000
 20
       .0000000
 11
     74.6000000
 21
       .0000000
0
LINE
  8
0
 10
     74.6000000
 20
       .0000000
 11
     74.7000000
 21
       .0000000
0
LINE
  8
0
 10
     74.7000000
 20
       .0000000
 11
     74.8000000
 21
       .0000000
0
LINE
  8
0
 10
     74.8000000
 20
       .0000000
 11
     74.9000000
 21
       .0000000
0
LINE
  8
0
 10
     74.9000000
 20
       .0000000
 11
     75.0000000
 21
       .0000000
0
LINE
  8
0
 10
     75.0000000
 20
       .0000000
 11
     75.1000000
 21
       .0000000
0
LINE
  8
0
 10
     75.1000000
 20
       .0000000
 11
     75.2000000
 21
       .0000000
0
LINE
  8
0
 10
     75.2000000
 20
       .0000000
 11
     75.3000000
 21
       .0000000
0
LINE
  8
0
 10
     75.3000000
 20
       .0000000
 11
     75.4000000
 21
       .0000000
0
LINE
  8
0
 10
     75.4000000
 20
       .0000000
 11
     75.5000000
 21
       .0000000
0
LINE
  8
0
 10
     75.5000000
 20
       .0000000
 11
     75.6000000
 21
       .0000000
0
LINE
  8
0
 10
     75.6000000
 20
       .0000000
 11
     75.7000000
 21
       .0000000
0
LINE
  8
0
 10
     75.7000000
 20
       .0000000
 11
     75.8000000
 21
       .0000000
0
LINE
  8
0
 10
     75.8000000
 20
       .0000000
 11
     75.9000000
 21
       .0000000
0
LINE
  8
0
 10
     75.9000000
 20
       .0000000
 11
     76.0000000
 21
       .0000000
0
LINE
  8
0
 10
     76.0000000
 20
       .0000000
 11
     76.1000000
 21
       .0000000
0
LINE
  8
0
 10
     76.1000000
 20
       .0000000
 11
     76.2000000
 21
       .0000000
0
LINE
  8
0
 10
     76.2000000
 20
       .0000000
 11
     76.3000000
 21
       .0000000
0
LINE
  8
0
 10
     76.3000000
 20
       .0000000
 11
     76.4000000
 21
       .0000000
0
LINE
  8
0
 10
     76.4000000
 20
       .0000000
 11
     76.5000000
 21
       .0000000
0
LINE
  8
0
 10
     76.5000000
 20
       .0000000
 11
     76.6000000
 21
       .0000000
0
LINE
  8
0
 10
     76.6000000
 20
       .0000000
 11
     76.7000000
 21
       .0000000
0
LINE
  8
0
 10
     76.7000000
 20
       .0000000
 11
     76.8000000
 21
       .0000000
0
LINE
  8
0
 10
     76.8000000
 20
       .0000000
 11
     76.9000000
 21
       .0000000
0
LINE
  8
0
 10
     76.9000000
 20
       .0000000
 11
     77.0000000
 21
       .0000000
0
LINE
  8
0
 10
     77.0000000
 20
       .0000000
 11
     77.1000100
 21
       .0000000
0
LINE
  8
0
 10
     77.1000100
 20
       .0000000
 11
     77.2000000
 21
       .0000000
0
LINE
  8
0
 10
     77.2000000
 20
       .0000000
 11
     77.3000000
 21
       .0000000
0
LINE
  8
0
 10
     77.3000000
 20
       .0000000
 11
     77.4000000
 21
       .0000000
0
LINE
  8
0
 10
     77.4000000
 20
       .0000000
 11
     77.5000000
 21
       .0000000
0
LINE
  8
0
 10
     77.5000000
 20
       .0000000
 11
     77.6000100
 21
       .0000000
0
LINE
  8
0
 10
     77.6000100
 20
       .0000000
 11
     77.7000000
 21
       .0000000
0
LINE
  8
0
 10
     77.7000000
 20
       .0000000
 11
     77.8000000
 21
       .0000000
0
LINE
  8
0
 10
     77.8000000
 20
       .0000000
 11
     77.9000000
 21
       .0000000
0
LINE
  8
0
 10
     77.9000000
 20
       .0000000
 11
     78.0000000
 21
       .0000000
0
LINE
  8
0
 10
     78.0000000
 20
       .0000000
 11
     78.1000000
 21
       .0000000
0
LINE
  8
0
 10
     78.1000000
 20
       .0000000
 11
     78.2000000
 21
       .0000000
0
LINE
  8
0
 10
     78.2000000
 20
       .0000000
 11
     78.3000000
 21
       .0000000
0
LINE
  8
0
 10
     78.3000000
 20
       .0000000
 11
     78.4000000
 21
       .0000000
0
LINE
  8
0
 10
     78.4000000
 20
       .0000000
 11
     78.5000000
 21
       .0000000
0
LINE
  8
0
 10
     78.5000000
 20
       .0000000
 11
     78.6000000
 21
       .0000000
0
LINE
  8
0
 10
     78.6000000
 20
       .0000000
 11
     78.7000000
 21
       .0000000
0
LINE
  8
0
 10
     78.7000000
 20
       .0000000
 11
     78.8000000
 21
       .0000000
0
LINE
  8
0
 10
     78.8000000
 20
       .0000000
 11
     78.8999900
 21
       .0000000
0
LINE
  8
0
 10
     78.8999900
 20
       .0000000
 11
     79.0000000
 21
       .0000000
0
LINE
  8
0
 10
     79.0000000
 20
       .0000000
 11
     79.1000000
 21
       .0000000
0
LINE
  8
0
 10
     79.1000000
 20
       .0000000
 11
     79.2000000
 21
       .0000000
0
LINE
  8
0
 10
     79.2000000
 20
       .0000000
 11
     79.3000000
 21
       .0000000
0
LINE
  8
0
 10
     79.3000000
 20
       .0000000
 11
     79.4000000
 21
       .0000000
0
LINE
  8
0
 10
     79.4000000
 20
       .0000000
 11
     79.5000000
 21
       .0000000
0
LINE
  8
0
 10
     79.5000000
 20
       .0000000
 11
     79.6000000
 21
       .0000000
0
LINE
  8
0
 10
     79.6000000
 20
       .0000000
 11
     79.7000000
 21
       .0000000
0
LINE
  8
0
 10
     79.7000000
 20
       .0000000
 11
     79.8000000
 21
       .0000000
0
LINE
  8
0
 10
     79.8000000
 20
       .0000000
 11
     79.9000000
 21
       .0000000
0
LINE
  8
0
 10
     79.9000000
 20
       .0000000
 11
     80.0000000
 21
       .0000000
0
LINE
  8
0
 10
     80.0000000
 20
       .0000000
 11
     80.1000000
 21
       .0000000
0
LINE
  8
0
 10
     80.1000000
 20
       .0000000
 11
     80.2000000
 21
       .0000000
0
LINE
  8
0
 10
     80.2000000
 20
       .0000000
 11
     80.3000000
 21
       .0000000
0
LINE
  8
0
 10
     80.3000000
 20
       .0000000
 11
     80.4000000
 21
       .0000000
0
LINE
  8
0
 10
     80.4000000
 20
       .0000000
 11
     80.5000000
 21
       .0000000
0
LINE
  8
0
 10
     80.5000000
 20
       .0000000
 11
     80.6000000
 21
       .0000000
0
LINE
  8
0
 10
     80.6000000
 20
       .0000000
 11
     80.7000000
 21
       .0000000
0
LINE
  8
0
 10
     80.7000000
 20
       .0000000
 11
     80.8000000
 21
       .0000000
0
LINE
  8
0
 10
     80.8000000
 20
       .0000000
 11
     80.9000000
 21
       .0000000
0
LINE
  8
0
 10
     80.9000000
 20
       .0000000
 11
     81.0000000
 21
       .0000000
0
LINE
  8
0
 10
     81.0000000
 20
       .0000000
 11
     81.1000000
 21
       .0000000
0
LINE
  8
0
 10
     81.1000000
 20
       .0000000
 11
     81.2000000
 21
       .0000000
0
LINE
  8
0
 10
     81.2000000
 20
       .0000000
 11
     81.3000000
 21
       .0000000
0
LINE
  8
0
 10
     81.3000000
 20
       .0000000
 11
     81.4000000
 21
       .0000000
0
LINE
  8
0
 10
     81.4000000
 20
       .0000000
 11
     81.5000000
 21
       .0000000
0
LINE
  8
0
 10
     81.5000000
 20
       .0000000
 11
     81.6000000
 21
       .0000000
0
LINE
  8
0
 10
     81.6000000
 20
       .0000000
 11
     81.7000000
 21
       .0000000
0
LINE
  8
0
 10
     81.7000000
 20
       .0000000
 11
     81.8000000
 21
       .0000000
0
LINE
  8
0
 10
     81.8000000
 20
       .0000000
 11
     81.9000000
 21
       .0000000
0
LINE
  8
0
 10
     81.9000000
 20
       .0000000
 11
     82.0000000
 21
       .0000000
0
LINE
  8
0
 10
     82.0000000
 20
       .0000000
 11
     82.1000000
 21
       .0000000
0
LINE
  8
0
 10
     82.1000000
 20
       .0000000
 11
     82.2000000
 21
       .0000000
0
LINE
  8
0
 10
     82.2000000
 20
       .0000000
 11
     82.3000000
 21
       .0000000
0
LINE
  8
0
 10
     82.3000000
 20
       .0000000
 11
     82.4000000
 21
       .0000000
0
LINE
  8
0
 10
     82.4000000
 20
       .0000000
 11
     82.5000000
 21
       .0000000
0
LINE
  8
0
 10
     82.5000000
 20
       .0000000
 11
     82.6000000
 21
       .0000000
0
LINE
  8
0
 10
     82.6000000
 20
       .0000000
 11
     82.7000000
 21
       .0000000
0
LINE
  8
0
 10
     82.7000000
 20
       .0000000
 11
     82.8000000
 21
       .0000000
0
LINE
  8
0
 10
     82.8000000
 20
       .0000000
 11
     82.9000000
 21
       .0000000
0
LINE
  8
0
 10
     82.9000000
 20
       .0000000
 11
     83.0000000
 21
       .0000000
0
LINE
  8
0
 10
     83.0000000
 20
       .0000000
 11
     83.1000000
 21
       .0000000
0
LINE
  8
0
 10
     83.1000000
 20
       .0000000
 11
     83.2000000
 21
       .0000000
0
LINE
  8
0
 10
     83.2000000
 20
       .0000000
 11
     83.3000000
 21
       .0000000
0
LINE
  8
0
 10
     83.3000000
 20
       .0000000
 11
     83.4000000
 21
       .0000000
0
LINE
  8
0
 10
     83.4000000
 20
       .0000000
 11
     83.5000000
 21
       .0000000
0
LINE
  8
0
 10
     83.5000000
 20
       .0000000
 11
     83.6000100
 21
       .0000000
0
LINE
  8
0
 10
     83.6000100
 20
       .0000000
 11
     83.7000000
 21
       .0000000
0
LINE
  8
0
 10
     83.7000000
 20
       .0000000
 11
     83.8000000
 21
       .0000000
0
LINE
  8
0
 10
     83.8000000
 20
       .0000000
 11
     83.9000000
 21
       .0000000
0
LINE
  8
0
 10
     83.9000000
 20
       .0000000
 11
     84.0000000
 21
       .0000000
0
LINE
  8
0
 10
     84.0000000
 20
       .0000000
 11
     84.1000000
 21
       .0000000
0
LINE
  8
0
 10
     84.1000000
 20
       .0000000
 11
     84.2000000
 21
       .0000000
0
LINE
  8
0
 10
     84.2000000
 20
       .0000000
 11
     84.3000000
 21
       .0000000
0
LINE
  8
0
 10
     84.3000000
 20
       .0000000
 11
     84.4000000
 21
       .0000000
0
LINE
  8
0
 10
     84.4000000
 20
       .0000000
 11
     84.5000000
 21
       .0000000
0
LINE
  8
0
 10
     84.5000000
 20
       .0000000
 11
     84.6000000
 21
       .0000000
0
LINE
  8
0
 10
     84.6000000
 20
       .0000000
 11
     84.7000000
 21
       .0000000
0
LINE
  8
0
 10
     84.7000000
 20
       .0000000
 11
     84.8000000
 21
       .0000000
0
LINE
  8
0
 10
     84.8000000
 20
       .0000000
 11
     84.8999900
 21
       .0000000
0
LINE
  8
0
 10
     84.8999900
 20
       .0000000
 11
     85.0000000
 21
       .0000000
0
LINE
  8
0
 10
     85.0000000
 20
       .0000000
 11
     85.1000000
 21
       .0000000
0
LINE
  8
0
 10
     85.1000000
 20
       .0000000
 11
     85.2000000
 21
       .0000000
0
LINE
  8
0
 10
     85.2000000
 20
       .0000000
 11
     85.3000000
 21
       .0000000
0
LINE
  8
0
 10
     85.3000000
 20
       .0000000
 11
     85.3999900
 21
       .0000000
0
LINE
  8
0
 10
     85.3999900
 20
       .0000000
 11
     85.5000000
 21
       .0000000
0
LINE
  8
0
 10
     85.5000000
 20
       .0000000
 11
     85.6000000
 21
       .0000000
0
LINE
  8
0
 10
     85.6000000
 20
       .0000000
 11
     85.7000000
 21
       .0000000
0
LINE
  8
0
 10
     85.7000000
 20
       .0000000
 11
     85.8000000
 21
       .0000000
0
LINE
  8
0
 10
     85.8000000
 20
       .0000000
 11
     85.9000000
 21
       .0000000
0
LINE
  8
0
 10
     85.9000000
 20
       .0000000
 11
     86.0000000
 21
       .0000000
0
LINE
  8
0
 10
     86.0000000
 20
       .0000000
 11
     86.1000000
 21
       .0000000
0
LINE
  8
0
 10
     86.1000000
 20
       .0000000
 11
     86.2000000
 21
       .0000000
0
LINE
  8
0
 10
     86.2000000
 20
       .0000000
 11
     86.3000000
 21
       .0000000
0
LINE
  8
0
 10
     86.3000000
 20
       .0000000
 11
     86.4000000
 21
       .0000000
0
LINE
  8
0
 10
     86.4000000
 20
       .0000000
 11
     86.5000000
 21
       .0000000
0
LINE
  8
0
 10
     86.5000000
 20
       .0000000
 11
     86.6000000
 21
       .0000000
0
LINE
  8
0
 10
     86.6000000
 20
       .0000000
 11
     86.7000000
 21
       .0000000
0
LINE
  8
0
 10
     86.7000000
 20
       .0000000
 11
     86.8000000
 21
       .0000000
0
LINE
  8
0
 10
     86.8000000
 20
       .0000000
 11
     86.9000000
 21
       .0000000
0
LINE
  8
0
 10
     86.9000000
 20
       .0000000
 11
     87.0000000
 21
       .0000000
0
LINE
  8
0
 10
     87.0000000
 20
       .0000000
 11
     87.1000000
 21
       .0000000
0
LINE
  8
0
 10
     87.1000000
 20
       .0000000
 11
     87.2000000
 21
       .0000000
0
LINE
  8
0
 10
     87.2000000
 20
       .0000000
 11
     87.3000000
 21
       .0000000
0
LINE
  8
0
 10
     87.3000000
 20
       .0000000
 11
     87.4000000
 21
       .0000000
0
LINE
  8
0
 10
     87.4000000
 20
       .0000000
 11
     87.5000000
 21
       .0000000
0
LINE
  8
0
 10
     87.5000000
 20
       .0000000
 11
     87.6000000
 21
       .0000000
0
LINE
  8
0
 10
     87.6000000
 20
       .0000000
 11
     87.7000000
 21
       .0000000
0
LINE
  8
0
 10
     87.7000000
 20
       .0000000
 11
     87.8000000
 21
       .0000000
0
LINE
  8
0
 10
     87.8000000
 20
       .0000000
 11
     87.9000000
 21
       .0000000
0
LINE
  8
0
 10
     87.9000000
 20
       .0000000
 11
     88.0000000
 21
       .0000000
0
LINE
  8
0
 10
     88.0000000
 20
       .0000000
 11
     88.1000000
 21
       .0000000
0
LINE
  8
0
 10
     88.1000000
 20
       .0000000
 11
     88.2000000
 21
       .0000000
0
LINE
  8
0
 10
     88.2000000
 20
       .0000000
 11
     88.3000000
 21
       .0000000
0
LINE
  8
0
 10
     88.3000000
 20
       .0000000
 11
     88.4000000
 21
       .0000000
0
LINE
  8
0
 10
     88.4000000
 20
       .0000000
 11
     88.5000000
 21
       .0000000
0
LINE
  8
0
 10
     88.5000000
 20
       .0000000
 11
     88.6000000
 21
       .0000000
0
LINE
  8
0
 10
     88.6000000
 20
       .0000000
 11
     88.7000000
 21
       .0000000
0
LINE
  8
0
 10
     88.7000000
 20
       .0000000
 11
     88.8000000
 21
       .0000000
0
LINE
  8
0
 10
     88.8000000
 20
       .0000000
 11
     88.9000000
 21
       .0000000
0
LINE
  8
0
 10
     88.9000000
 20
       .0000000
 11
     89.0000000
 21
       .0000000
0
LINE
  8
0
 10
     89.0000000
 20
       .0000000
 11
     89.1000000
 21
       .0000000
0
LINE
  8
0
 10
     89.1000000
 20
       .0000000
 11
     89.2000000
 21
       .0000000
0
LINE
  8
0
 10
     89.2000000
 20
       .0000000
 11
     89.3000000
 21
       .0000000
0
LINE
  8
0
 10
     89.3000000
 20
       .0000000
 11
     89.4000000
 21
       .0000000
0
LINE
  8
0
 10
     89.4000000
 20
       .0000000
 11
     89.5000000
 21
       .0000000
0
LINE
  8
0
 10
     89.5000000
 20
       .0000000
 11
     89.6000100
 21
       .0000000
0
LINE
  8
0
 10
     89.6000100
 20
       .0000000
 11
     89.7000000
 21
       .0000000
0
LINE
  8
0
 10
     89.7000000
 20
       .0000000
 11
     89.8000000
 21
       .0000000
0
LINE
  8
0
 10
     89.8000000
 20
       .0000000
 11
     89.9000000
 21
       .0000000
0
LINE
  8
0
 10
     89.9000000
 20
       .0000000
 11
     90.0000000
 21
       .0000000
0
LINE
  8
0
 10
     90.0000000
 20
       .0000000
 11
     90.1000100
 21
       .0000000
0
LINE
  8
0
 10
     90.1000100
 20
       .0000000
 11
     90.2000000
 21
       .0000000
0
LINE
  8
0
 10
     90.2000000
 20
       .0000000
 11
     90.3000000
 21
       .0000000
0
LINE
  8
0
 10
     90.3000000
 20
       .0000000
 11
     90.4000000
 21
       .0000000
0
LINE
  8
0
 10
     90.4000000
 20
       .0000000
 11
     90.5000000
 21
       .0000000
0
LINE
  8
0
 10
     90.5000000
 20
       .0000000
 11
     90.6000000
 21
       .0000000
0
LINE
  8
0
 10
     90.6000000
 20
       .0000000
 11
     90.7000000
 21
       .0000000
0
LINE
  8
0
 10
     90.7000000
 20
       .0000000
 11
     90.8000000
 21
       .0000000
0
LINE
  8
0
 10
     90.8000000
 20
       .0000000
 11
     90.9000000
 21
       .0000000
0
LINE
  8
0
 10
     90.9000000
 20
       .0000000
 11
     91.0000000
 21
       .0000000
0
LINE
  8
0
 10
     91.0000000
 20
       .0000000
 11
     91.1000000
 21
       .0000000
0
LINE
  8
0
 10
     91.1000000
 20
       .0000000
 11
     91.2000000
 21
       .0000000
0
LINE
  8
0
 10
     91.2000000
 20
       .0000000
 11
     91.3000000
 21
       .0000000
0
LINE
  8
0
 10
     91.3000000
 20
       .0000000
 11
     91.3999900
 21
       .0000000
0
LINE
  8
0
 10
     91.3999900
 20
       .0000000
 11
     91.5000000
 21
       .0000000
0
LINE
  8
0
 10
     91.5000000
 20
       .0000000
 11
     91.6000000
 21
       .0000000
0
LINE
  8
0
 10
     91.6000000
 20
       .0000000
 11
     91.7000000
 21
       .0000000
0
LINE
  8
0
 10
     91.7000000
 20
       .0000000
 11
     91.8000000
 21
       .0000000
0
LINE
  8
0
 10
     91.8000000
 20
       .0000000
 11
     91.9000000
 21
       .0000000
0
LINE
  8
0
 10
     91.9000000
 20
       .0000000
 11
     92.0000000
 21
       .0000000
0
LINE
  8
0
 10
     92.0000000
 20
       .0000000
 11
     92.1000000
 21
       .0000000
0
LINE
  8
0
 10
     92.1000000
 20
       .0000000
 11
     92.2000000
 21
       .0000000
0
LINE
  8
0
 10
     92.2000000
 20
       .0000000
 11
     92.3000000
 21
       .0000000
0
LINE
  8
0
 10
     92.3000000
 20
       .0000000
 11
     92.4000000
 21
       .0000000
0
LINE
  8
0
 10
     92.4000000
 20
       .0000000
 11
     92.5000000
 21
       .0000000
0
LINE
  8
0
 10
     92.5000000
 20
       .0000000
 11
     92.6000000
 21
       .0000000
0
LINE
  8
0
 10
     92.6000000
 20
       .0000000
 11
     92.7000000
 21
       .0000000
0
LINE
  8
0
 10
     92.7000000
 20
       .0000000
 11
     92.8000000
 21
       .0000000
0
LINE
  8
0
 10
     92.8000000
 20
       .0000000
 11
     92.9000000
 21
       .0000000
0
LINE
  8
0
 10
     92.9000000
 20
       .0000000
 11
     93.0000000
 21
       .0000000
0
LINE
  8
0
 10
     93.0000000
 20
       .0000000
 11
     93.1000000
 21
       .0000000
0
LINE
  8
0
 10
     93.1000000
 20
       .0000000
 11
     93.2000000
 21
       .0000000
0
LINE
  8
0
 10
     93.2000000
 20
       .0000000
 11
     93.3000000
 21
       .0000000
0
LINE
  8
0
 10
     93.3000000
 20
       .0000000
 11
     93.4000000
 21
       .0000000
0
LINE
  8
0
 10
     93.4000000
 20
       .0000000
 11
     93.5000000
 21
       .0000000
0
LINE
  8
0
 10
     93.5000000
 20
       .0000000
 11
     93.6000000
 21
       .0000000
0
LINE
  8
0
 10
     93.6000000
 20
       .0000000
 11
     93.7000000
 21
       .0000000
0
LINE
  8
0
 10
     93.7000000
 20
       .0000000
 11
     93.8000000
 21
       .0000000
0
LINE
  8
0
 10
     93.8000000
 20
       .0000000
 11
     93.9000000
 21
       .0000000
0
LINE
  8
0
 10
     93.9000000
 20
       .0000000
 11
     94.0000000
 21
       .0000000
0
LINE
  8
0
 10
     94.0000000
 20
       .0000000
 11
     94.1000000
 21
       .0000000
0
LINE
  8
0
 10
     94.1000000
 20
       .0000000
 11
     94.2000000
 21
       .0000000
0
LINE
  8
0
 10
     94.2000000
 20
       .0000000
 11
     94.3000000
 21
       .0000000
0
LINE
  8
0
 10
     94.3000000
 20
       .0000000
 11
     94.4000000
 21
       .0000000
0
LINE
  8
0
 10
     94.4000000
 20
       .0000000
 11
     94.5000000
 21
       .0000000
0
LINE
  8
0
 10
     94.5000000
 20
       .0000000
 11
     94.6000000
 21
       .0000000
0
LINE
  8
0
 10
     94.6000000
 20
       .0000000
 11
     94.7000000
 21
       .0000000
0
LINE
  8
0
 10
     94.7000000
 20
       .0000000
 11
     94.8000000
 21
       .0000000
0
LINE
  8
0
 10
     94.8000000
 20
       .0000000
 11
     94.9000000
 21
       .0000000
0
LINE
  8
0
 10
     94.9000000
 20
       .0000000
 11
     95.0000000
 21
       .0000000
0
LINE
  8
0
 10
     95.0000000
 20
       .0000000
 11
     95.1000000
 21
       .0000000
0
LINE
  8
0
 10
     95.1000000
 20
       .0000000
 11
     95.2000000
 21
       .0000000
0
LINE
  8
0
 10
     95.2000000
 20
       .0000000
 11
     95.3000000
 21
       .0000000
0
LINE
  8
0
 10
     95.3000000
 20
       .0000000
 11
     95.4000000
 21
       .0000000
0
LINE
  8
0
 10
     95.4000000
 20
       .0000000
 11
     95.5000000
 21
       .0000000
0
LINE
  8
0
 10
     95.5000000
 20
       .0000000
 11
     95.6000000
 21
       .0000000
0
LINE
  8
0
 10
     95.6000000
 20
       .0000000
 11
     95.7000000
 21
       .0000000
0
LINE
  8
0
 10
     95.7000000
 20
       .0000000
 11
     95.8000000
 21
       .0000000
0
LINE
  8
0
 10
     95.8000000
 20
       .0000000
 11
     95.9000000
 21
       .0000000
0
LINE
  8
0
 10
     95.9000000
 20
       .0000000
 11
     96.0000000
 21
       .0000000
0
LINE
  8
0
 10
     96.0000000
 20
       .0000000
 11
     96.1000100
 21
       .0000000
0
LINE
  8
0
 10
     96.1000100
 20
       .0000000
 11
     96.2000000
 21
       .0000000
0
LINE
  8
0
 10
     96.2000000
 20
       .0000000
 11
     96.3000000
 21
       .0000000
0
LINE
  8
0
 10
     96.3000000
 20
       .0000000
 11
     96.4000000
 21
       .0000000
0
LINE
  8
0
 10
     96.4000000
 20
       .0000000
 11
     96.5000000
 21
       .0000000
0
LINE
  8
0
 10
     96.5000000
 20
       .0000000
 11
     96.6000000
 21
       .0000000
0
LINE
  8
0
 10
     96.6000000
 20
       .0000000
 11
     96.7000000
 21
       .0000000
0
LINE
  8
0
 10
     96.7000000
 20
       .0000000
 11
     96.8000000
 21
       .0000000
0
LINE
  8
0
 10
     96.8000000
 20
       .0000000
 11
     96.9000000
 21
       .0000000
0
LINE
  8
0
 10
     96.9000000
 20
       .0000000
 11
     97.0000000
 21
       .0000000
0
LINE
  8
0
 10
     97.0000000
 20
       .0000000
 11
     97.1000000
 21
       .0000000
0
LINE
  8
0
 10
     97.1000000
 20
       .0000000
 11
     97.2000000
 21
       .0000000
0
LINE
  8
0
 10
     97.2000000
 20
       .0000000
 11
     97.3000000
 21
       .0000000
0
LINE
  8
0
 10
     97.3000000
 20
       .0000000
 11
     97.3999900
 21
       .0000000
0
LINE
  8
0
 10
     97.3999900
 20
       .0000000
 11
     97.5000000
 21
       .0000000
0
LINE
  8
0
 10
     97.5000000
 20
       .0000000
 11
     97.6000000
 21
       .0000000
0
LINE
  8
0
 10
     97.6000000
 20
       .0000000
 11
     97.7000000
 21
       .0000000
0
LINE
  8
0
 10
     97.7000000
 20
       .0000000
 11
     97.8000000
 21
       .0000000
0
LINE
  8
0
 10
     97.8000000
 20
       .0000000
 11
     97.8999900
 21
       .0000000
0
LINE
  8
0
 10
     97.8999900
 20
       .0000000
 11
     98.0000000
 21
       .0000000
0
LINE
  8
0
 10
     98.0000000
 20
       .0000000
 11
     98.1000000
 21
       .0000000
0
LINE
  8
0
 10
     98.1000000
 20
       .0000000
 11
     98.2000000
 21
       .0000000
0
LINE
  8
0
 10
     98.2000000
 20
       .0000000
 11
     98.3000000
 21
       .0000000
0
LINE
  8
0
 10
     98.3000000
 20
       .0000000
 11
     98.4000000
 21
       .0000000
0
LINE
  8
0
 10
     98.4000000
 20
       .0000000
 11
     98.5000000
 21
       .0000000
0
LINE
  8
0
 10
     98.5000000
 20
       .0000000
 11
     98.6000000
 21
       .0000000
0
LINE
  8
0
 10
     98.6000000
 20
       .0000000
 11
     98.7000000
 21
       .0000000
0
LINE
  8
0
 10
     98.7000000
 20
       .0000000
 11
     98.8000000
 21
       .0000000
0
LINE
  8
0
 10
     98.8000000
 20
       .0000000
 11
     98.9000000
 21
       .0000000
0
LINE
  8
0
 10
     98.9000000
 20
       .0000000
 11
     99.0000000
 21
       .0000000
0
LINE
  8
0
 10
     99.0000000
 20
       .0000000
 11
     99.1000000
 21
       .0000000
0
LINE
  8
0
 10
     99.1000000
 20
       .0000000
 11
     99.2000000
 21
       .0000000
0
LINE
  8
0
 10
     99.2000000
 20
       .0000000
 11
     99.3000000
 21
       .0000000
0
LINE
  8
0
 10
     99.3000000
 20
       .0000000
 11
     99.4000000
 21
       .0000000
0
LINE
  8
0
 10
     99.4000000
 20
       .0000000
 11
     99.5000000
 21
       .0000000
0
LINE
  8
0
 10
     99.5000000
 20
       .0000000
 11
     99.6000000
 21
       .0000000
0
LINE
  8
0
 10
     99.6000000
 20
       .0000000
 11
     99.7000000
 21
       .0000000
0
LINE
  8
0
 10
     99.7000000
 20
       .0000000
 11
     99.8000000
 21
       .0000000
0
LINE
  8
0
 10
     99.8000000
 20
       .0000000
 11
     99.9000000
 21
       .0000000
0
LINE
  8
0
 10
     99.9000000
 20
       .0000000
 11
    100.0000000
 21
       .0000000
0
ENDSEC
0
EOF

